Аккорды «Stromae»

Stromae
Поль Ван Авэ́р (фр. Paul Van Haver, более известный как Stromae (произн. как «Стромай»); род. 12 марта 1985, Брюссель) — популярный бельгийский рэпер руандийского происхождения. Фамилия Van Haver на нидерландском произносится как Ван Ха́вер. Сценический псевдоним Stromae — искажённое Maestro на французском жаргоне верлан. В 2000 году выбрал себе псевдоним Opmaestro и начал свою музыкальную деятельность. Так как псевдоним был похож на другого артиста, Поль поменял его, остановившись на Stromae. В… Читать полностью... Поль Ван Авэ́р (фр. Paul Van Haver, более известный как Stromae (произн. как «Стромай»); род. 12 марта 1985, Брюссель) — популярный бельгийский рэпер руандийского происхождения. Фамилия Van Haver на нидерландском произносится как Ван Ха́вер. Сценический псевдоним Stromae — искажённое Maestro на французском жаргоне верлан. В 2000 году выбрал себе псевдоним Opmaestro и начал свою музыкальную деятельность. Так как псевдоним был похож на другого артиста, Поль поменял его, остановившись на Stromae. В 18 лет Поль совместно с рэпером J.E.D.I. (Дидье Жан-Лонган) создал группу, и они записали песню, также сняв видео «Faut que t’arrête le Rap». Тем не менее, J.E.D.I. решил оставить дуэт, что ознаменовало начало сольной карьеры Stromae в 2003 году. В 2006 году Stromae принял участие в Hip-Hop Family, а также Juste Debout Benelux в 2007. Для того, чтобы оплатить обучение, Поль устроился на работу. Но так как средств не хватало, он поступил в Национальный институт кинематографии и радиоэлектроники (INRACI), на факультет кино, а на заработанные деньги записал свой первый альбом: EP «Juste un cerveau, un flow, un fond et un mic…». В 2009 году выпустил сингл «Alors on danse», который очень скоро стал популярным и в других европейских странах. Сингл занял первые места в топе продаж во Франции, Германии, Бельгии. На данный момент эта песня является «визитной карточкой» рэпера. В августе 2013 года выпустил свой второй студийный альбом "Racine Carrée", который занял верхние строчки хит-парадов в Бельгии, Франции и Швейцарии. В своих композициях Stromae использует компьютер с программным обеспечением Reason. Скрыть...
Популярные аккорды Stromae:
алфавиту | просмотрам | случайно
  • Intro/Verse:
    e|--------------------------------------------------------------------------|
    B|--------------------------------------------------------------------------|
    G|-----------------2--------------------------------------------------------|
    D|-----6---6-6---2---1--1-1-------------------------------------------------|
    A|---4----------------------------------------------------------------------|
    E|-4------------------------------------------------------------------------|
    
    Chorus:
    e|--------------------------------------------------------------------------|
    B|--------------------------------------------------------------------------|
    G|--------------------------------------------------------------------------|
    D|-2~---2-2~----2-4-2-1~----------------------------------------------------|
    A|--------------------------------------------------------------------------|
    E|--------------------------------------------------------------------------|…
  • Capo on 1
    
    Stromae - Tous les memes
    
    Intro
    E | ---------------------------------------------------------|
    B | ---------------------------------------------------------|
    G | -0--------0-----5-5-4-2--2-4-0----0----0-----0-----------|
    D…
  • Chorus:
    Em     D     G       C
    Formidable, formidable
                   Am                   Em B/F#
    Tu etais formidable, j'etais fort minable
                      Em
    Nous etions formidables
    
    Em  D G C
    Formidable…
  • Сapo 1
     
    Am             G
    Dites-moi d'où il vient,
    Am               G
    Enfin je saurais où je vais,
    Am                     G          
    Maman dit que lorsqu'on cherche bien,
    F#m               Bm
    On finit toujours…
  • Am C Dm  
    E7                  Am
    A ceux qui n’en ont pas
    C Dm E                   
                        Am
    A ceux qui n’en ont pas
    
       C    Dm        E7                    Am
    Rosa, Rosa, quand on fout le bordel, tu…
Наверх