Аккорды «Strung Out»

Strung Out
Strung Out - панк-рок-группа из Сими Вэлли, штат Калифорния, США. Группа была образована в 1992 году и в основном известна благодаря своему уникальному музыкальному стилю, который можно охарактеризовать как смесь определенных аспектов панк-рока и хэви метала. Strung Out выпустили семь альбомов на лэйбле Fat Wreck Chords, также их треки были включены в ряд сборников и видео. Они принимали участие в Warped Tour и продолжают давать концерты по всему миру. В изначальный состав группы входили: вокалист… Читать полностью... Strung Out - панк-рок-группа из Сими Вэлли, штат Калифорния, США. Группа была образована в 1992 году и в основном известна благодаря своему уникальному музыкальному стилю, который можно охарактеризовать как смесь определенных аспектов панк-рока и хэви метала. Strung Out выпустили семь альбомов на лэйбле Fat Wreck Chords, также их треки были включены в ряд сборников и видео. Они принимали участие в Warped Tour и продолжают давать концерты по всему миру. В изначальный состав группы входили: вокалист Джейсон Круз (Jason Cruz), гитаристы Джейк Кили (Jake Kiley) и Роб Рэймос (Rob Ramos), бас-гитарист Джим Черри (Jim Cherry) и барабанщик Адам Остин (Adam Austin). После выпуска первой пластинки (Strung Out) они стали одной из первых групп, выпускающихся на Fat Wreck Chords - лэйбле, владельцем и управляющим которого является Толстый Майк (Fat Mike) из группы NOFX. Остин покинул группу в 1992 году, вместо него был приглашен Брэд Моррисон (Brad Morrison), который также вскоре покинул Strung Out. В результате барабанщиком группы стал Джордан Бёрнс (Jordan Burns), ранее игравший в другой группе из Сими Вэлли - Ten Foot Pole. Первый полноценный альбом группы, Another Day in Paradise, был выпущен в мае 1994 г., а следующий альбом - Suburban Teenage Wasteland Blues - вышел в 1996 году. Два года спустя Strung Out выпустили альбом-компиляцию своих ранних песен под названием The Skinny Years…Before We Got Fat. Альбом Twisted by Design, выпущенный в том же 1998 году, свидетельствует о безусловном прогрессе группы с точки зрения звучания: все треки альбома одновременно техничны и достаточно быстры, однако при этом группа продолжает играть в стиле панк-рок с примесью более «темных» тонов. Структура песен стала более абстрактной. В 1999 году группу покинул бас-гитарист Джим Черри; после выхода из группы он был участником Pulley и Zero Down, а в 2002 году умер от сердечного приступа. После выхода Джима из группы в Strung Out появился новый басист - Крис Эйкен (Chris Aiken), чей опыт существенно повлиял на звучание нового альбома группы - The Element of Sonic Defiance, который вышел в 2000 году. В 2002 году группа выпустила свой четвертый полноценный альбом An American Paradox, который попал в Billboard Top 200. В первом издании альбома имелся также бонусный трек «Don’t Look Back». На песню «Cemetery» был снят видеоклип, который впоследствии попал в несколько сборников панк-рок-видеоклипов. В 2003 году группа записала и выпустила альбом с записями живых выступлений. А в 2004 вышел еще один альбом группы - Exile in Oblivion. На песню «Analog», входящую в этот альбом, был снят видеоклип. Недавно Strung Out закончили запись своего шестого альбома - Blackhawks Over Los Angeles, который был выпущен 12 июня 2007 года. В свободное от концертов, турне и записи музыки время Джейсон Круз профессионально занимается живописью, Джордан является совладельцем компании Moto XXX (вместе с барабанщиком NOFX Эриком Сэндин), Роб Рэймос работает в киноиндустрии, а Джейк время от времени дает уроки музыки. Скрыть...
Популярные аккорды Strung Out:
алфавиту | просмотрам | случайно
  • Tune down one full step
    
    X - fret muted
    / - slide up
     - slide down
    r - rest
    
    F|----------------|----------------|----------------|----------------|
    C|----------------|----------------|----------------|----------------|
    G|----------------|----------------|----------------|----------------|
    D|----------------|----------------|----------------|----------------|
    
    
    Intro(2x):
    F|----------------|----------------|----------------|----------------|
    C|----------------|----------------|----------------|----------------|
    G|3---3-----X-3---|3---3-----X-3---|----------------|----------------|
    D|----------------|----------------|5---5-----X-5---|5---5-----X-5---|
    
    F|----------------|----------------|----------------|----------------|
    C|----------------|----------------|----------------|----------------|
    G|----------------|----------------|----------------|----------------|
    D|3---3-----X-3---|3---3-----X-3---|1---1-----X-1---|1---1-----X-1/3-|
    
    
    Verse:
    F|----------------|----------------|----------------|----------------|
    C|----------------|2---2-----X-2---|3---3-----X-3---|5---5-----X-5---|
    G|3---3-----X-3---|----------------|----------------|----------------|
    D|----------------|----------------|----------------|----------------|
    
    F|----------------|----------------|----------------|----------------|
    C|----------------|----------------|----------------|----------------|
    G|3---3-----X-3---|----------------|----------------|----------------|
    D|----------------|3---3-----X-3---|1---1-----X-1---|1---1-----X-1/3-|
    
    F|----------------|----------------|----------------|----------------|
    C|----------------|2---2-----X-2---|3---3-----X-3---|5---5-----X-5---|
    G|3---3-----X-3---|----------------|----------------|----------------|
    D|----------------|----------------|----------------|----------------|
    
    F|----------------|----------------|----------------|----------------|
    C|----------------|----------------|----------------|--------5-5-5-5-|
    G|3---3-----X-3---|----------------|----------------|----------------|
    D|----------------|3---3-----X-3---|1---1-----X-1---|1---1-----------|
    
    Chorus:
    F|----------------|----------------|----------------|----------------|
    C|----------------|----------------|----------------|----------------|
    G|5-5-5-5-5-5-5-5-|5-5-5-5-5---7---|8-8-8-8-8-8-8-8-|8-8-8-8-8-8-8-8-|
    D|----------------|----------------|----------------|----------------|
    
    F|----------------|----------------|----------------|----------------|
    C|----------------|----------------|----------------|----------------|
    G|----7---7-------|----5---5-------|----3---3-------|5---3---2---3---|
    D|5-5---5---5-5-5-|3-3---3---3-3-3-|1-1---1---1-1-1-|----------------|
    
    F|----------------|----------------|----------------|----------------|
    C|----------------|----------------|----------------|----------------|
    G|5-5-5-5-5-5-5-5-|5-5-5-5-5---7---|8-8-8-8-8-8-8-8-|8-8-8-8-8-8-8-8-|
    D|----------------|----------------|----------------|----------------|
    
    F|----------------|----------------|----------------|----------------|
    C|----------------|----------------|----------------|----------------|
    G|----7---7-------|----5---5-------|----3---3-------|5-5-5-5-5-5-5-5-|
    D|5-5---5---5-5-5-|3-3---3---3-3-3-|1-1---1---1-1-1-|----------------|
    
    F|----------------|----------------|----------------|----------------|
    C|----------------|----------------|----------------|----------------|
    G|----7---7-------|----5---5-------|----3---3-------|5-5-5-5-5r------|
    D|5-5---5---5-5-5-|3-3---3---3-3-3-|1-1---1---1-1-1-|----------------|
    
    Intro…
  • full D tuning                     
                               
    intro  
    F:--------------------------------------------------------------
    C:------6-6-9-6-----------6-6-7-6-----------6-6-9-7-6-----------
    G:--7-7---------5>----7-7---------------7-7---------------------…
  • Intro Riff (0:02)
    
    
    Rob:
    
    d|-------12...-----|
    A|--12-------------|
    F|-----------------|
    C|-----------------|
    G|-----------------|
    D|-----------------|
    
    
    Jake & Rob:
    
    d|---------------------------|-------------------|
    A|-------------2-------------|-------------1...--|
    F|-------------3-------------|-------------0...--|
    C|-------2-----0-----0-----2-|-------2-----2...--|
    G|-2---2-0-0-2---0-2---2-0---|-2---2-0-0-2-3...--|
    D|-0-3-----------------------|-0-3---------------|
    
    
    Verse…
  • Tuning: Standard EADGBe
    
    Chords used:
    Cm -   x35543
    G# -   466544
    Eb -   x68886
    Bb -   x13331
    Bb/D - x587xx
    Fm -   133111
    Gm -   355333
    Eb/G - 365xxx
    
    
    Intro:
    
    Cm Cm Bb(hold)
    
    then
    
    Cm G# x2
    Cm Bb G#
    Cm…
  • G                               D                              Am             C
    We scratched the names off      since we ain't never met on our chords on our guitars
    G                               D…
  • :----------------------------:
    :----------------------------:                                            
    :----------------------------:
    :-9-9--7-7-7-7--5-5--7-7-7-7-:
    :-7-7--5-5-5-5--3-3--5-5-5-5-:
    :----------------------------:
    
    :-----------------------------------------------------------------:
    :-----------------------------------------------------------------:
    :-----------------------------------------------------------------:
    :-------------------------------------------------------5-5-5-5-5-:
    :-9--7--5--7--9-9--7-7-7-7--5-5--7-7-7-7--9-9--7-7-7-7--3-3-3-3-3-:…
  • THERE ARE ACTUALLY TWO BASS TRACKS IN THE INTRO
    
    INTRO(just play over and over)   2nd BASS
    G]-12-12-12-12-12-12-]          [-------------------------]
    D]-10-10-10--9-10-10-]          [-------------------------]
    A]-------------------]…
  • Tuning: Standard EADGBe
    
    Chords used:
    Bb - x13331
    F -  133211
    Gm - 355333
    Eb - x68886
    Cm - x35543
    Dm - xx0231
    D -  xx0232
    G# - 466544
    
      
    Intro: Bb-- x4
    
    
    Verse 1:
         Gm
    Your darkness falls…
  • Tuning:DGCFAd
    
    Intro-repeat a few times
    d|----------------------------------------------------------------------------|
    A|----------------------------------------------------------------------------|
    F|--1111--99--77--99--1111--1212--1111--77------------------------------------|
    C|----------------------------------------------------------------------------|
    G|--9-9---77--55--77--9-9---1010--9-9---55------------------------------------|
    D|----------------------------------------------------------------------------|
    
    then…
  • Tuning: Standard EADGBe
    
    Chords used:
    D -   xx0232
    A -   x02220
    Bm -  x24432
    G -   320033
    F#m - 244222
    
    
    Intro:
    D--Bm-G--
    D--G-A-
    D-A-Bm-G-
    D--A-Bm-G--A-
    
    
    Verse 1:
           D
    We're alive in the modern…
  • Tuning: Standard EADGBe
    
    Chords used:
    G#m - 466444
    E -   022100
    B -   x24442
    F# -  244322
    G# -  466544
    C#  - x46664
    C#m - x46654
    Ebm - x68876
    A -   x02220
    
    
    Intro:
    
    G#-- x4
    
    then
    
    G# B F# C#
    
    G#m E…
  • Intro
    
    
    Guitar 1
    
    d|-3..-----------------------------------------------------------------------|
    A|-3..-----------------------------------------------------------------------|
    F|-3..-----------------------------------------------------------------------|
    C|-5-5-5-5-5-5-5-5-5-5-5-5-5-5-5-5-5-5-5-5-5-5-5-5-5-5-5-5-5-5-5-5-5-5-5-5-5-|
    G|-4h5-4-5-4-5-4-4h5-4-5-4-5-4-4h5-4-5-4-5-4-4h5-4-5-4-5-4-4h5-4-5-4-5-4-4h5-|
    D|-3-3-3-3-3-3-3-3-3-3-3-3-3-3-3-3-3-3-3-3-3-3-3-3-3-3-3-3-3-3-3-3-3-3-3-3-3-|
    
    Guitar…
  • -Intro 1/A-
    G|-----------------------------|
    D|-----------------------------|
    A|-5-5\--------5-5\------------|
    D|-------88-8\-------0~0~0~000-|
    
    -Intro 1/B-
    G|---------------------------------------------------------|
    D|---------------------------------------------------------|
    A|-5~5555-1~1111-3~3333-0~0000-5~5555-1~1111-3~3333-0~0000-|
    D|---------------------------------------------------------|
    
    -Verse…
  • Tuning: Stnadard EADGBe
    
    Chords used:
    C# -   x46664
    G# -   466544
    Bbm -  x13321
    F# -   244322
    Ebm -  x68876
    C#/F - 143xxx
    G#/C - x365xx
    F/A -  x032xx
    
    
    Intro:
    C# Bbm Fm C# Bbm Fm C# Bbm Fm F# x4
    Bbm G#/C C#…
  • Tuning: Standard EADGBe
    
    Chords used:
    E -   022100
    B -   x24442
    C#m - x46654
    A -   x02220
    F#m - 244222
    
    
    Intro: Drumbeats
    
    Bass: C#m--B-F#m--
    
    Distortion: C#m--B-F#m- x3
    
    
    Verse 1:
           C#m
    It was written…
  • Tuning: Standard EADGBe
    
    Chords used:
    C#m - x46654
    A -   x02220
    E -   022100
    B -   x24442
    F#m - 244222
    
    
    Intro:
    
    Bass: C#m-A-B-F#m
    
    2 Guitars: C#m-A-B-F#m
    
          C#m A     B
    We're far--ther than
          F#m…
  • Gtr1. Riff1
    E |------------------||
    B |---------3h4-3-5--||
    G |--3h5-5-----------||
    D |------------------|| 8x
    A |------------------||
    E |------------------||
    
    4th time through Gtr2 starts Riff 1:
    E |-8-8---11-11---10-10--6-6-6/8--||
    B…
  • Tuning: Standard EADGBe
    
    Chords used:
    C# -  x46664
    G# -  466544
    Bbm - x13321
    F# -  244322
    C -   x32010
    Ebm - x68876
    F  -  133211
    Fm -  133111
    
    
    Intro: 
    B-Bbm--B--Bbm--B-Bbm-- x3, B-Bbm--F#--A(hold)
    B-Bbm--B--Bbm--C#-C-B-Bbm--F#--A
    B-Bbm--B--Bbm--C#-C-B-Bbm--F#--A
    
    
    Verse…
  • Tuning: Standard EADGBe
    
    Chords used:
    Bb -  x13331
    F -   133211
    Gm -  355333
    Eb -  x68886
    Cm -  x35543
    Dm -  xx0231
    F/A - x032xx
    
    
    Intro:
    F-Gm-Eb-- x3, F--
    Bb--Cm--Eb---- x2
    
    
    Verse 1:
    Bb…
  • Intro:     Guitar 1
    
    
    E----------------------------------------------------------------        A--0---000000---------------|
    B--5p0-0-5p0-0-5p0-0-5p0-0-5p0-5p0-------------------------------        B--3h5-555555---------------|
    G----------------------------------------------------------------…
  • Intro-played clean x1
    e|--------------------------------------------------------------------------|
    B|--------------------------------------------------------------------------|
    G|11-11-11-12-11-9--7-7-7-8-7-5--11-11-11-12-11-9---9-9-12-12-12-11-9-------|
    D|x--x--x--x--x--x--x-x-x-x-x-x--x--x--x--x--x--x---x-x-x--x—-x--x--x-------|
    A|9--9--9--10-9--7--5-5-5-6-5-3--9--9--9--10-9--7---7-7-10-10-10-9--7-------|
    E|--------------------------------------------------------------------------|
    
    e|--------------------------------------------------------------------------|
    B|--------------------------------------------------------------------------|
    G|11-11-11-12-11-9--11-11-11-12-11-9---9-9-12-12-12-11-9-7-6-7-9-11---------|
    D|x--x--x--x--x--x--x--x--x--x--x--x---x-x-x--x--x--x--x-x-x-x-x-x----------|
    A|9--9--9--10-9--7--9--9--9--10-9--7---7-7-10-10-10-9--7-5-4-5-7-9----------|
    E|--------------------------------------------------------------------------|
    
    Verse-distortion…
  • Tuning:C G C F A D
    intro(00:00-00:09)   (00:09-00:19)                 (00:18-00:20)
     |------------------|-----10----------------------|---------------|
     |------------------|---8----11-11-11-10-10-10/11-|-13-13-11-10---|…
  • Intro
    e|----------------------|
    B|------------5---7-----|
    G|------------5---7-----|
    D|-5---4--2---3---5---5-|
    A|-5---4--2-----------5-|
    E|-3---2--0-----------3-|
    
    Pre-Chorus
    e|---------------------|
    B|---------------------|
    G|-5---3-----------7/5-|
    D|-5---3---5---7---7/x-|
    A|-3---1---5---7---5/3-|
    E|---------3---5-------|
    
    Verse…
  • Drop D tuning - DADGBe
    
    Intro:
    
    00:03
    |--------------------------------------------------|
    |--------------------------------------------------|
    |--------------6-6-6-------9-9-9-6-6-6-7-7-7-------|
    |--------------------7-7-7-------------------5-5-5-|
    |--5-5-5-------------------------------------------|
    |--------0-0-0-------------------------------------|
    
    00:07…
  • Tuning: Standard EADGBe
    
    Chords used:
    Ebm - x68876
    B -   x24442
    F# -  244322
    C# -  x46664
    G#m - 466444
    Bb -  x13331
    
    
    Intro: Ebm---G#m-F#-Ebm---C#-Ebm-
    
    
    Verse 1:
    Ebm          F#
       For every bullet in…
  • Tuning: DGCFAd
    
    1m13s (Rob Ramos)
    
    d--|-------------------------|-------------------------|-15p12-------------------|
    A--|-12----------------------|-12----------------------|-------15p12-15p12-13p12-|
    F--|b14----------------------|b14----------------------|-------------------------|
    C--|-------------------------|-------------------------|-------------------------|
    G--|-------------------------|-------------------------|-------------------------|
    D--|-------------------------|-------------------------|-------------------------|
    4/4:…
  • FULL D TUNING
                               
       pre intro               intro
    F:-------------|-----------------------
    C:-------------|-------4>-7>-----------
    G:--7--7-6-5-4-|-7>----------7>--------
    D:-------------|----7>----------7>-5>--
    
    verse1
    F:---------------
    C:---------------
    G:--7>----4>-----…
  • d-|-----|-----------------------------0--------0---0---0---0---0-----------|
    A-|-----|-----------------------------5--------5--\4---4--\2---2.p.0-------|
    F-|-----|-----------------6.p.4--------------------------------------------|
    C-|--4--|-------------6------------------------------------------------2---|
    G-|--4--|-----4---7----------------------------------------------------2---|
    D-|-\2--|--------------------------------------------------------------0---|…
  • Tuning: Standard EADGBe
    
    Chords used:
    Bbm -  x13321
    C# -   x46664
    Ebm -  x68876
    F -    133211
    Fm -   133111
    F# -   244322
    G#/C - x365xx
    G# -   466544
    Eb -   x68886
    Bb -   x13331
    
    
    Intro: Bbm- x2
    
    then
    
    Bbm…
  • Intro Riff (0:00)
    
    Jake:
      							   (2x)
    d|------------------------------------------------------------|
    A|-----10----10------13-------13-----8-----11-----10-----10---|
    F|----9--9--9--9---12--12---12--12--7-7--10--10--9--9---9--9--|
    C|---7-----7-----10-------10-------5----8-------7----7-7------|
    G|------------------------------------------------------------|
    D|------------------------------------------------------------|
    -This…
  • :------------------------A--------------------------------:
    :---------------------------------------------------------:                                             
    :---------------------------------------------------------:
    :-3-3-3---------5-5-5--8-8-8-8-8--3-3-3-------------------:
    :-1-1-1--5-5-5--3-3-3--6-6-6-6-6--1-1-1--5-5-5--3-3-3-3-3-:
    :--------3-3-3---------------------------3-3-3--1-1-1-1-1-:
    
    :------------------------B----------------------------------:
    :-----------------------------------------------------------:
    :-----------------------------------------------------------:
    :-3-3-3---------5-5-5--8-8-8-8-8--3-3-3---------10-10-10--8-:…
  • FULL D TUNING                 
                               
    intro  
    F:---------------
    C:--------4>-----
    G:-----7>----5>-- X 2
    D:--5>-----------
    
    verse
    F:---------------
    C:-----------2>--
    G:--------5>----- X 4
    D:--5>-2>--------
    
    intro
    
    chorus
    F:-----------------------|…
  • Intro Riff (0:00) 
    
    Rob: 
        								 (2x)
    d|------------------------------------5h7p5...----------------------|
    A|-10...------------------------------------------------------------|
    F|--x---------------------------------------------------------------|
    C|--7...------------------------------------------------------------|
    G|------------------------------------------------------------------|
    D|------------------------------------------------------------------|
    -Rob's…
  • Guitar B: Jake Kiley
    
    Strung Out tunes their guitars a full step down.
    
    Intro:
    Guitars: A & B
    (0:27)
    D|----------------------------------------------------------------------|
    A|----------------------------------------------------------------------|
    F|-------------5a-7-7--5-5--------------5a---------7--------------------|
    C|-7-7-5m-5ah7----7-7--5-5--7-7-5m-5ah7----5-5--5--7--------------------|
    G|-7-7------------5-5--3-3--7-7------------5-5--5--5--------------------|
    D|-5-5----------------------5-5------------3-3--3-----------------------|
    
    (0:32)
    D|----------------------------------------------------------------------|
    A|-----------------------------------------8-8--8--8--8-10--10--10--10-10|
    F|-------------5a-7-7--5-5--------------5a-7-7--7--7--7-9---9---9---9--9|
    C|-7-7-5m-5ah7----7-7--5-5--7-7-5m-5ah7----5-5--5--5--5-7---7---7---7--7|
    G|-7-7------------5-5--3-3--7-7-----------------------------------------|
    D|-5-5----------------------5-5-----------------------------------------|
    
    Verse:
    Guitars:…
  • Intro 
    2*:
    A|--8--5--8--| 
    
    4*
    E|--333---666---555---111--|
      
    
    Verse 1
    8*
    E|--333---666---555---111--|
    
    Chorus
    3*:
    A|------------111--111------------111-------| 
    E|--333--333------------111--111------111---| 
    
    1*:
    A|------------666--666--55555--|…
  • Tune down one full step.  This may be played on a 5-string.
    If you play on a 5-string, you may not want to tune down.
    
     slide
    X fretted
    . pause
    
    Intro:
    
    *come in with drums*
    F|----------------|----------------|
    C|----------------|----------------|
    G|----------------|----------------|
    D|3-3-3-3-3-3-3-3-|5-5-5-5-5-5-5-5-|
    
    F|----------------|----------------|----------------|----------------|
    C|----------------|----------------|----------------|----------------|
    G|2-2-2-2-2-2-2-2-|5-5-5-0-0-0-0-0-|2-2-2-2-2-2-2-2-|5-5-5-57-7-7-7-|
    D|----------------|----------------|----------------|----------------|
    
    F|----------------|----------------|----------------|----------------|
    C|----------------|----------------|----------------|----------------|
    G|2-2-2-2-2-2-2-2-|5-5-5-0-0-0-0-0-|----------------|----------------|
    D|----------------|----------------|3-3-3-3-3-3-3-3-|5-5-5-5-5-5-5-5-|
    
    
    Verse:
    
    F|----------------|----------------|----------------|----------------|
    C|----------------|----------------|----------------|----------------|
    G|2-2-2-2-2-2-2-2-|5-5-5-0-0-0-0-0-|2-2-2-2-2-2-2-2-|----------------|
    D|----------------|----------------|----------------|3-3-3-35-5-5-5-|
    
    F|----------------|----------------|----------------|----------------|
    C|----------------|----------------|----------------|----------------|
    G|2-2-2-2-2-2-2-2-|5-5-5-0-0-0-0-0-|----------------|----------------|
    D|----------------|----------------|3-3-3-3-3-3-3-3-|5-5-5-5-5-5-5-5-|
    
    
    Chorus…
  • Intro        (@)  2x        (*)   2x     ($) Verses 4x 
    ----------|-------------|--------------|------------|
    -7>-------|-7>----------|-7>-----------|-7>---------|
    ----------|----7>-5>-7>-|----9>-7>-5-4-|----9>-7>---|
    ----------|-------------|--------------|------------|
    
    
    (%)…
  • FULL D TUNING                          
                               
     intro  
    F:-----------------
    C:-----------------
    G:---------10>-7>-- X 2
    D:--10>-8>---------
    
    verse
    F:---------------|    |--------
    C:---------------|…
  • FULL D TUNING                       
                               
      intro & verse
    F:----------------
    C:----------------
    G:---2>----5>----- X 4
    D:------3>----5>--
    
    chorus
    F:----------------
    C:---------------- part A
    G:---2>-5>--------…
  • :--------------------------------A-----------------------------------------:
    :--------------------------------------------------------------------------:
    :--------------------------------------------------------------------------:
    :-------3-3-3--------------------3-3-3--5-5-5-5-5---------3-3-3------------:
    :-5-5-5-1-1-1--3-3-3-3-3--5-5-5--1-1-1--3-3-3-3-3--5-5-5--1-1-1--3-3-3-3-3-:
    :-3-3-3--------1-1-1-1-1--3-3-3--------------------3-3-3---------1-1-1-1-1-:
    
    :------------------:…
  • Tuning:DGCFAD 
    
    Intro
    e|---------------------------------------------------------------------------|
    B|---------------------------------------------------------------------------|
    G|--88--88--9--99--9--99-------88--88--9-------------------------------------|
    D|--99--99--9--99--9--99--x3---99--99--9-------------------------------------|
    A|--77--77--7--77--7--77-------77--77--7-------------------------------------|
    E|---------------------------------------------------------------------------|
    
    Next…
  • Tuning: Standard EADGBe
    
    Chords used:
    E -    022100
    B -    x24442
    C#m -  x46654
    A -    x02220
    F#m -  244222
    G#m -  466444
    B/Eb - x698xx
    
    
    Intro:
    
    C#m-B-C#m--
    
    then
    
    C#m-B-C#m--C#m-E-C#m--B-B--F#m-F#m- x2
    
    
    Verse…
  • Intro
    
    Guitar one plays below riff once, then guitar 2 comes in.
    
    Guitar 1
    
    d|---------------------------------------------------------------------------|
    A|---------------------------------------------------------------------------|
    F|-------4-------------------------------------------------------------------|
    C|-------4-4-4-----------5-------------------------------0-0------6x---------|
    G|-2-2-2-------2-2-------5-5-5-----------7-7-7-5-5-2-2-2-----0-2-------------|
    D|-----------------3-3-3-------3-3-5-5-5-------------------------------------|
    
    Guitar…
  • FULL D TUNING           
                               
    verse 1 
    F:----------------------------
    C:----------------------------
    G:-----5>-------5>------------   1st part
    D:--2>----5>-2>----5>-5-4-2>--
    
    F:----------------------
    C:--2>----0>-2>---------
    G:----------------------…
  • Tuning: Standard
    
    e|------------------------------|-----------------------|------------------|
    B|--5-88-5-6--5-88-5-6----------|-----------------------|------------------|
    G|--5-55-5-5--5-55-5-5----------|--x-5-x-4-x-2-x-4-5-7--|--5----3----2-----|
    D|------------------------------|--x-5-x-5-x-3-x-5-5-7--|--5----3----2-----|
    A|------------------------------|-----------------------|--3----1----0-----|
    E|---------------------8-8-8-8--|-----------------------|------------------|
    Repeat…
  • INTRO
        |a.)     |b.)
       e|--------|------------------------------------------------------------------|
       B|-.------|----------------------------------------------(2x)----------------|
    1. G|-2---.--|--222-2-2-0-------------222-2-2-0---------------------------------|…
  • Tuning: Standard EADGBe
    
    Chords used:
    Eb -   x68886
    Bb -   x13331
    Cm -   x35543
    G# -   466544
    Eb/G - 365xxx
    Gm -   355333
    Fm -   133111
    
    
    Intro:
    
    Kid Speaking:
    
    I don't ever
    just like tomatoes
    because I…
  • Intro(Bass) 
    d---------------------------------
    a---------------------------------
    f----------------------------------
    c-----------------------------------
    g------------------------------------
    d-10--then strum--10-9-7-5---10-9-12-10----
    
    Intro(Guitar)…
  • Tune Half Step Down
    Intro-
    C    G    Am x2
    E
    
    
    C                    
    The mirror never lies 
    G
    And neither does the face 
    Am                                        G
    Of a man who doesn't know where his place is…
  • full D tuning                        
                               
    intro (after guitar D; D#) 
    F:---------------
    C:---------------
    G:---------------  X 2
    D:--8-8-8-5-5-6--
    
    verse
    F:-----------------------------
    C:-----------------------------
    G:--8>-----------------10>-7>--…
  • G:---------------------------------------------------------------
    D:---------------------------------------------------------------
    A:---------------------------------------------------------------
    E:--4-------1---------------------------------------------------…
  • FULL D TUNING                      
                               
    intro    part 1                   part 2              part 3
    F:--------------------|---------------------------|----------4>--
    C:--------------5>----|---------------------------|-4>-5>-7>-----
    G:--5>----2>-4>----5>-|---------------------------|--------------
    D:-----5>-------------|-2-5-5-2-5-5-2-4-2-4-2-4-5-|--------------
    play:…
Наверх