Аккорды «Sublime»

Sublime
Sublime в переводе на русский значит "возвышенный, величественный". Хотя первоначально группа под таким названием ничуть не оправдывала его. Эта банда была, по высказываниям очевидцев, "панками ниже среднего уровня, которых были рады видеть на вечеринках". Однако, начиная с 1988, группа стремительно завоевывала популярность, став музыкальным ЯВЛЕНИЕМ. Смесь dance-hall и rock-steady с агрессивными чертами панка пришлась по душе обитателям Long Beach, California. Тут нужно сказать о тех, кто образовал… Читать полностью... Sublime в переводе на русский значит "возвышенный, величественный". Хотя первоначально группа под таким названием ничуть не оправдывала его. Эта банда была, по высказываниям очевидцев, "панками ниже среднего уровня, которых были рады видеть на вечеринках". Однако, начиная с 1988, группа стремительно завоевывала популярность, став музыкальным ЯВЛЕНИЕМ. Смесь dance-hall и rock-steady с агрессивными чертами панка пришлась по душе обитателям Long Beach, California. Тут нужно сказать о тех, кто образовал группу Sublime и поставил на уши Южную Калифорнию. Основателем и лидером группы был Bradley James Nowell (22. 02. 68 - 25. 05. 96), гитарист и вокалист. Помимо него в состав группы входили Eric Wilson, басист, и некто Bud, игравший на барабанах. Лидер группы Brad был личностью вполне одиозной и харизматической. Современники сообщают, что в детстве у Бреда были проблемы с концентрацией внимания. Для борьбы с сей напастью он с младых ногтей принимал различные лекарства. А надо вам сказать, что по-аглицки "лекарство" и "наркотик" звучат (да и пишутся) одинаково. Так что, сами понимаете, покатился наш Бред по кривой дорожке наркотической зависимости и перепробовал за свою недолгую жизнь практически все, что можно и нельзя. Самым главным пристрастием Бреда была все же музыка. Еще ребенком он слушал хард кор панк, типа The Circle Jerks и Black Flag. Немного позднее состоялось знакомство с музыкой СКА в лице ансамблей типа The Selector и The Specials. Также лидер Sublime послушивалRun DMC, BDP и KRS-One (к сожалению, автор статьи не имеет ни малейшего представления о последних двух группах, но они, по слухам, смешивали rap и reggae). Пишу я обо всем этом не просто так, а потому, что прослушанная в детстве музыка оставила отпечаток на Sublime. Именно поэтому творческое наследие группы представляет собой такую невероятную смесь стилей, что члены группы, собственно, и не отрицали. В 1992 Brad и продюсер группы Miguel осознали, какая истерия происходила вокруг Sublime. Они заложили инструменты и основали свой лейбл, Skunk Records, чтобы выпустить и распространить свой первый альбом 40 Oz To Freedom. Впоследствии Miguel объяснял, что лейбл был создан, чтобы они могли сказать: "А вот Sublime, группа, которая пишется на Skunk Records". 40 Oz To Freedom был записан менее, чем за $1000. первые 30 000 копий были проданы участниками группы из багажников собственных машин. Альбом стал невероятно популярным. 50 недель он провел в The Billboard Alternative New Artist Albums Chart, причем последние 30 недель - в первой 20. Также альбом прорвался в Top 50 New Artists Chart. 5 недель альбом являлся самым продаваемым альбомом-новичком в тихоокеанском регионе. Это был нешуточный успех для группы, олицетворяющей DIY этику (DIY - это do it yourself, то есть сделай сам, если кто не знает). При записи были использованы различные семплы, от разговоров на улице с прохожими до хип-хоп исполнителей. Собственно, использование чужих семплов вынудило Sublime убрать с альбома некоторые треки, например Get Out, Rawhide. Группа не хотела платить деньги злым буржуям, поэтому песни и были изъяты. Стилистически альбом был крайне разнообразен: punk, dub/reggae, ska, hip-hop. Композиция Get Out является, по мнению многих, визитной карточкой Sublime. Я с ними не вполне согласен. У такой многоликой группы, как Sublime, не может быть визитной карточки. Надо слушать все песни. Или хотя бы Bad Fish, Don't Push. Надо радоваться, слушая традиционную ямайскую синкопу, изумляться лиричности текстов: If I had a shotgun, Know what I'd do? I'd point it straight into the sky And shoot the heaven down to you Вообще, Sublime отличает способность создать поистине панковский драйв, не потеряв при этом мелодизма и потрясающей трогательности (как в текстах, так и в музыке). Но что я говорю, это надо слышать! Следующий альбом, Robbin' The Hood, был издан в 1994, также на Skunk Records. Он писался в условиях весьма ограниченного бюджета, частично на 4-х дорожечных магнитофонах в домашних условиях, частично в легендарной West Beach Studios, где писались такие монстры, как The Minutemen, Bad Religion, The Descendants. Студию группе безвозмездно предоставила Epitaph, с которой музыканты никогда не были подписаны. Получился экспериментальный альбом, в котором сплелись punk, dub и много еще чего. Он не снискал широкой славы. Публика просто не могла поверить, что столь разноплановые композиции принадлежат одной и той же группе. Хочется выделить песню Saw Red, записанную при участии Gwen Stefani из No Doubt. Robbin' The Hood послужил прелюдией к альбому Sublime. Вот где безграничные возможности группы проявились во всей красе! Журнал Time назвал его "лучшим рок релизом" года. Другие издания тоже не стеснялись в выражениях - "подлинный шедевр", "классика наших дней". Этот шедевр получил признание не только у аудитории, но и у других музыкантов. Многие из них признавались, что не переставали слушать Sublime во время своих туров. Продюсером альбома был легендарный Butthole Surfer, Paul Leary. Также иногда в процессе принимал участие David Kahne (Fishbone, Soul Coughing). Снова получилась смесь разнообразных стилей. В песнях Seeds, Same In The End царит панковский угар (в хорошем смысле слова), в Santeria на первый план выходит романтическая сущность группы, Wrong Way - типичный образчик ска с дудками, April 29 1992 Miami - вещь в стиле хип-хоп. Ну а What I Got… Просто нет слов. Может быть, чисто в музыкальном плане в музыке Sublime от ска не больше, чем от других стилей. Но настроение, способность радоваться жизни, не перед чем не отступающее чувство оптимизма выдают принадлежность группы к ска сообществу. По музыке заметно, как непреодолимая сила подбрасывает музыкантов в воздух, а вокруг творятся танцы до упаду. А, самое главное, что все вокруг это понимали, и вниманием группа не была обделена. Но случилось то, что случилось. 25 мая 1996 Бреду не спалось. Он позвал своего любимого далматинца Луи и пошел прогуляться по пляжу в Сан-Франциско. Собака упомянута тут не случайно. Дело в том, что Lou the dog считался полноправным членом группы. Так, ему посвящены следующие строки из What I Got: Fuckin' and fighting it's all the same Livin' with loui dog's the only way to stay sane Не спалось Бреду из-за его пристрастия к героину. Бред перестал колоться, чтобы от него не ушла его жена, родившая ему сына. Но соблазн был слишком велик, Бред не смог устоять. Утром его нашли мертвым в комнате отеля. Передозировка героина. Не стоит в который раз размышлять о том, почему же наркотики забирают у нас выдающихся музыкантов. Все равно ничего не поймем. Давайте лучше слушать СКА! Скрыть...
Популярные аккорды Sublime:
алфавиту | просмотрам | случайно
  • Intro (Whole notes)
    G---------------
    D---------------
    A---------------
    E-12-11-9-7-----
    
    Verse
    G-----------------------------------------------------
    D--------------7/9-9-6-6-----6-6----------------------  Repeat 2x
    A--7-7------7------------6/9--------------------7h9p7-
    E------7/10----------------------9-9-4/7-9-9-7--------
    Chorus
    G----------------------------------------------
    D----------------------------------------------…
  • Intro:
       E (w/random picking)            D
    E---------------------------------  --------------------------------
    B--9-------------------------------7--------------------------------
    G--9-------------------------------7--------------------------------
    D--9-------------------------------7--------------------------------
    A--7-------------------------------5--------------------------------…
  • play 4 times:              
    e----------------------------------
    b----------------------------------                          
    g-----5----------------------------              
    d-5-7---7~~~~----------------------
    a----------------------------------
    e----------------------------------
    
    after…
  • A	        Bb7			G
    
    e|-------|      e|-----|	       e|-----|
    B|--2----|      B|--4--|	       B|-----|
    G|--2----|      G|--4--|	       G|-----|
    D|--2----| 	D|--4--|	       D|--5--|
    A|--0----| 	A|--2--|	       A|--5--|
    E|-------|	E|-----|…
  • E|----------------
    B|-----3----------
    G|-------2--------    Keep Repeating Through the begin, 
    D|--0------0------    until solo.
    A|----------------
    E|-----------3----
    
    E|---------1-------------------
    B|----1--3---3-1/3-----7--5--33
    G|--2------------------7--5--44…
  • |---------------------------------------------|
    |---------------------------------------------|
    |----9-11b-9----------------------------------|
    |-11--------11----9-7-9b-7-------------9-7----|
    |--------------------------9--979-979-9-------|
    |---------------------------------------------|
    
    
    |---------------------------------------------------|
    |---------------------------------------------------|
    |--14b-12-------------------------------------------|
    |--------14---14-12-14--14--12-14-14b-12----12-14---|
    |---------------------12------------------14--------|
    |---------------------------------------------------|
    
    
    |---------------------------------------------------------------------|
    |---------------------------------------------------------------------|
    |----------12----------------12-14-14b-14-12---12-14-12-14-14b-14b~~--|
    |-12-14-12----14-12h14--12-14----------------14-----------------------|
    |---------------------------------------------------------------------|
    |---------------------------------------------------------------------|
    
    
    |---------------------------------------------------------------------|
    |------3-5------------------8-----------------------------------------|
    |--2h4------------------7-9-------------------------------------------|
    |-----------2-4-7-5-7/9-----------------------------------------------|
    |---------------------------------------------------------------------|
    |---------------------------------------------------------------------|…
  • here are the chords used
    
        G           D           C
    |---3---|   |---2---|   |---0---|
    |---3---|   |---3---|   |---1---|
    |---0---|   |---2---|   |---0---|
    |---0---|   |---0---|   |---2---|
    |---2---|   |-------|   |---3---|
    |---3---|…
  • Intro
    
    G-----------------------------|
    D-----------------------------|
    A-------------------------4-3-|
    E-4-4-4-4-4-4-4-4-4-4-4-4-----|
    
    Between intro and verse
    
    G-----------------------------|
    D-----------------------------|
    A-------4-3-------4---3-------|
    E-4-4-4-----4-4-4-------------|
    
    Verse
    G-----------------------------|
    D-----------------------------|
    A-------------------------4-3-|
    E-4-4-4-4-4-4-4-4-4-4-4-4-----|
    
    Chorus
    G-----------------------------|
    D-----------------------------|
    A-------------------------4-3-|
    E-4-4-4-4-4-4-4-4-4-4-4-4-----|
    
    That's…
  • -----------------------------------------------------------------------|
    -----------------------------------------------------------------------|
    -----------------------------------------------------------------------|
    -------7------7-------------7----7------7------------7-----------------|
    ----5------5-------5----5------------5------5---5--------5----5--------|
    -------------------5-----------------5------5-----------------5--------|…
  • **normal tuning**
    
    
    Bb       F       C                          G
    All that I need, look at all the love we've found.
    Bb                       F
    I won't run and pull the one jack move
         C                         G
    they…
  • Intro (PART A)
    G:--------------------------------------
    D:--------------------------------------
    A:--------------------------------------
    E:-5555555-3-1111111-3333333------------
    
    Verse (PART B)
    Play the first half slow,…
  • Tuning:standard
    
    e|---------------------------------------------------------------------------|
    B|---------------------------------------------------------------------------|
    G|----------------------5--7--------------------------------------5--7-------|
    D|---------3--5-3--5/7---------------3--5--3--------3--5--3--5/7-------------|
    A|-3h5---5---------------------3--5------------5----------------------------|
    E|---------------------------------------------------------------------------|
    
    e|---------------------------------------------------------------------------|
    B|-6-------------------------------------------------------------------------|
    G|---7p5-------5---------------------5--7-----------5--7--7-7p5---5----52/11|
    D|-------5-5h7----5/3-----3---3-5/7-------5h7--7--7-------------7----7-------|
    A|--------------------3h5---5------------------------------------------------|
    E|---------------------------------------------------------------------------|
    
    e|-10------------------------------------------------------------------------|
    B|-----13--10-------------------------------------------------------10-10-10-|
    G|------------12BRp10-----------------------------------------10-------------|
    D|---------------------12-10h12-------10----------------------10-------------|
    A|------------------------------10h12----108-----------10/12----12----------|
    E|--------------------------------------------10-8h10-8----------------------|
    
    e|---------------------------------------------------------------------------|
    B|---------------------------------------------------------------------------|
    G|-12~----------------------------------------------------------15---14~-----|
    D|-----/17--0-10-10-10-12-----3-3-3-3-5-5-5-5-3h-5--5/7-10-12---------------|
    A|---------------------------------------------------------------------------|
    E|--------------------------5------------------------------------------------|
    
    e|---------------------------------------------------------------------------|
    B|---------------------------------------------------------------------------|
    G|-14h15s12-12-10-12-9h10-------------------12h14p12p10-12-10----------------|
    D|------------------------12h14-12p10-12----------------------14--12h14bR--|
    A|---------------------------------------------------------------------------|
    E|---------------------------------------11----------------------------------|
    
    e|---------------------------------|
    B|---------------------------------|
    G|---------------------------------|
    D|-12p11~--12-12/14--12-12-11-11---|
    A|---------------------------------|
    E|---------------------------------|…
  • e|-----------------------------------------------------------------|
     B|-----------------------------------12----------------------------|
     G|-(9)----(12)----(14)-(12)----14b16----(16)r14-12----12h14r12-----|
     D|-------------------------------------------------14----------14--|…
  • -- Funky little reggae groove for verses
    
    G|-|-------------------------------
    D|o|-----------------------7---5---
    A|o|-------------------5-5---5-----
    E|-|-5-5-0-5-4-3-3-0-3-----------5-
    
    
      -- Punk groove (Bad Religion style)…
  • e|---------------------------------------------------------------------------|
    B|---------------------------------------------------------------------------|
    G|---------------------------------------------------------------------------|
    D|---------------------------------------------------------------------------|
    A|-5-5-0-5-3-3-------3-3---5-5-0-5--------------3-3--------------------------|
    E|-----------------------------------------1-1-1-----------------------------|
    do…
  • **normal tuning**
    
     e|---------------|
     B|---------------|
     G|---------------|
     D|-2h5p4p2-----2-|
     A|---------3h4---|
     E|---------------|
     
     Verse:
     e|-----------------------------------------------------------|
     B|-----------------------------------------------------------|…
  • INTRO
    
    e------------------------------------------------------------------------------------------|
    b----1--1--------1--------1---------1--------1---------1------------1----------1-----------|
    g----0--0--2-----2--------0---------2--------2---------2------------0----------2-----------|
    d-2--------------2-----2------------------2---------2--2---------2----------2--------------|
    a-3-----------0-----0--3-----0---0-----0--3-----0---0--0--0---3--------0-------------------|
    E---------------------------------------------------------------------------------0--------|
    
    e--------------------------------------------------------------------------------------------|
    b------0-------------------------------------3--3--3--3--3--3--3--3--3--3--3--3--3--3--3--3--|
    g--2---0----------------2--------------------1--1--1--1--1--1--1--1--1--1--1--1--1--1--1--1--|
    d--3---0----------------3--------------------2--2--2--2--2--2--2--2--2--2--2--2--2--2--2--2--|
    a--3---x----------------3--2-----------------------------------------------------------------|
    E--1---3----------------1--3-----------------------------------------------------------------|…
  • G         C           D
    Baby I really wanna know...
    
    G                   E         C   D
    I think you should stop your cry-in'.....
    
    C                     D
    
    Here's my kerchief to dry your eyes....
    
    C          D
    you know…
  • VERSE: A is 002220  A5 is 002200  G is 320023  G* is 320003
    
     A         A5               G         G*
    Everyday I love her just a little bit more
    
     A           A5      G          G*
    A little bit more, a little bit more,…
  • Intro (you can mix it up a bit)
        A        C        D   C  A     C
    E|--5--5--X--8--X--8--10--8--5--5--8--X--8---|
    B|--5--5--X--8--X--8--10--8--5--5--8--X--8---|
    G|--6--------9--X--9--11--9--6-----9--X--9---|
    D|--7-------10----10--12-10--7----10---------|
    A|-------------------------------------------|
    E|-------------------------------------------|…
  • G:--------------------------------------------------------------- 
    D:--------------------------------------------------------------- 
    A:---(3)3333-(0)0000-(3)3333-(5)5530----------------------------- 
    E:---------------------------------------------------------------…
  • Intro
    
    E-------------------------------------------------------
    B-------------------------------------------------------
    G-------------------------------------------------------
    D-------------------2-----------------------------------…
  • Chords:
    F#  244322
    G#m 466544
    B   X24442
    F#2 X 9 11 11 11 9
    C#  9 11 11 10 9 9
    MR= Main Riff
    
    
    Main Riff:
    e|-----6-------6-----------------------|
    B|---7---7---7---7------9---------9----|
    G|-8-------6---------11---11---11---11-|
    D|-----------------9---------9---------|
    A|-------------------------------------|
    E|-------------------------------------|
    
    MR
    I…
  • (1) (2) (3) (4) (5) (6)
    -4---3---3---3----------
    -4---3---3---4---4---1--
    -5---4---3---5---5---2--
    -6---5-----------6---3--
    ------------------------
    ------------------------
    
    1               2                   3…
  • STANDARD TUNNING (E,A,D,G)
    
    VERSE
    
    G|------------------------
    D|--------88-7------------
    A|5-7-8-5-----5-7-8-5-----
    E|--------------------66-5
    
    PRE-CHORUS
    
    G|------------------------------------------------------------
    D|55-555-555-555----------------55-555-555-555-7-7-7-7-7-7-7-7
    A|---------------55-555-555-555-------------------------------
    E|------------------------------------------------------------
    
    CHORUS
    
    G|-------------------------------…
  • This is just the intro
    
    e-9-9-9-12-9-9-9-12-9-9-12-9----9--9h10p9-|
    B----------------------------12-----------|
    G-----------------------------------------|
    D-----------------------------------------|
    A-----------------------------------------|
    E-----------------------------------------|
    
    e-9-9-9-12-9-9-9-12-9-9-12-9-12-11---|
    B------------------------------------|
    G------------------------------------|
    D------------------------------------|
    A------------------------------------|
    E------------------------------------|…
  • Foolish Fool
    
    Riff 1            Riff 2                      Riff 3
    ------------     -----------------14-    ---------
    ------------     -----------------14-    ---------
    ------------     --------------------     ---------…
  • **normal tuning **
    
    Intro:
    Gtr1
    e|-------------------------
    B|-x--x-x-10-x----x--x-x-x-
    G|-x--x-x-11-x-13-x--x-x---
    D|-------------14-x--x-x---
    A|-------------------------
    E|-------------------------
    
    GtR2
    e|-----------------------0----
    B|-7-7-7---------9-9-x---0----
    G|-7-7-7---7-----9-9-x--------
    D|-7-7-7---7--h--9-9-x--------
    A|-5-5---5---5/7---7----------
    E|---------------------0---14
    
    GTR1
    e|-10-10-10-10-10-10-12-12-12--
    B|-10-10----10-10-10-12-12-12-x
    G|-11-11----11-11-11-13-13-13-x
    D|-----------------------------
    A|-----------------------------
    E|-----------------------------
    
    GTR2
    e|------------------------------0-----
    B|----------------9-9-x---------0-----
    G|-7-7-----7-7---9-9-x---------------
    D|-7-7-------7---9-9-x-----------0---
    A|-5-5-5-5---7---7-7-x-x-7-5h7-----0-
    E|-5------------0---------------------
    
    VERSE-
    GTR1
    e|-------------------------12-12-12-12-
    B|-10-10-x-x-10-10-x-10-10-12-12-12-12-
    G|-10-10-x-x-10-10-x-10----13-13-13-13-
    D|-11-11-x-x----11---11----------------
    A|-------------------------------------
    E|-------------------------------------
    
    GTR2
    e|----------------------
    B|----------7-7-x-9-9-7-
    G|-7-7-----7-7-x-9-9-7-
    D|-7-7-----7-7-x-9-9-7-
    A|-5-5-----------------
    E|------x-x-------------
    
    GTR1
    e|-------------------p----
    B|-7-7-7-7-9-x-9-9--97-7-
    G|-7-7-7-7-9-x-9-9-997-7-
    D|-7-7-7-7-9-x-9-9--97-7-
    A|------------------------
    E|------------------------
    
    GTR2
    e|-------------5-5---------x-x-5-5-
    B|-x-9-9-7-7-x-7-7-x-x---x-x-x-7-7-
    G|-x-9-9-7-7-x-7-7-x-x-9-x-x-x-7-7-
    D|-x-9-9-7-7-x-----x-x-9-x---------
    A|---------------------------------
    E|---------------------------------
    
    Cont…
  • Intro... B, G,A   
    D
     She takes her time when it's time to get ready
     Always has her way Always leaves me waiting by the phone
    She told me more than once to take it slow
     And I said okay
     But lately I've been sleeping alone
    G…
  • riff 1 :
    
    d---------------|
    a---------------|
    e----4---6---8--|
    
    
    (riff 1)  C#              F          F#     A           G#      C#
    Big Salty Tears is what I taste as I drive    past your house tonight
    
                  F…
  • Intro
    G--------------------------------------------------------
    D--------------------------------------------------------
    A--3--3-3--3-3--3-3--3-7--7-7--7-7-----------------------
    E--------------------------------------------------------…
  • intro/slow parts
    )----------------------------(
    )----------------------------(
    )----------3-6-5-------------(
    )-3--3-6-3-------x-----------(
    
    play this almost the whole rest of time
    )----------------------------(
    )----------------------------(
    )------------3-6-5-----------(
    )-3--3-66-33-------6---------(
    
    )----------------------------(
    )----------------------------(
    )------------3-6-5-----------(
    )-3--3-66-33-------6---------(
    
    )----------------------------(
    )----------------------------(
    )------------3-6-5-----------(
    )-3--3-66-33-------6---------(
    
    )----------------------------(
    )----------------------------(
    )------------3-6-5-----------(
    )-3--3-66-33-------6---------(…
  • Tuning:standard
    
    G|--|-------------------7----------------------
    D|--|--------------7-9------9------------------
    A|--|----------7-9-----------------------------  
    E|-7|---7--10----------------------------------
    
    G|--|------999--|------------7-----7-----------
    D|--|-----------|--7h8h9--------9--------------
    A|-7|---7-------|------------------------------…
  • Intro- guitar 1 plays a B [x777xx]
    
    guitar 2
    ----------------------|
    ----------------------|
    ----------------------|
    ----------------------| play 4 times
    ----------------------|
    --7--7-7--7-7--7-5-9--|
    
    Verse 1
    E…
  • A (barchord)                G (barchord)
     Verse 1: Every day I love her just a little bit more......
     
              A                              A...
     Bridge:  Baby if you want to get low
              
              G…
  • Tuning: Standard (EADG)
    
    
    Verse One: Play 8x
     |--------------------|
     |---5----------------|
     |-3-----2-3---3---2--|
     |-----3---------3----|
    
    				    Then
     |--------------0----|      |-------------------------------0-0------|…
  • (C)   (G5)   (Am)
    e-----0-  --3--  --0--
    b-----1-  --3--  --1--
    g-----0-  --0--  --2--
    D-----2-  --0--  --2--
    A-----3-  --2--  --0--
    E-----x-  --3--  --0--
    
    this is the riff played over and over and over throughout the whole…
  • This song is in dropped D tuning.
    
    Intro
    
    G|-----------------------------------------------|
    D|*--5------5------3--------5------5-----3-------|
    A|*----5------5------3---3----5------5-----------|
    D|-------5------5------3--------5------5----3-3--|
    
    G|-----------------------------------------------|
    D|*--5------5------3--------5------5-7-8-10-/-12-|
    A|*----5------5------3--------5------------------|
    D|-------5------5------3-3------5----------------|…
  • C         G
    Maybe one breath away
    
    C             G
    I'd find the words to say
    
    C             G
    I'll sit and light the bong
    
    C             G7
    I'll hold my hit in real long
    
    C                 Am   C      Am             F
    I…
  • Tuning: Standard
    
     First Part
     |---------------------|
     |---------------------|
     |---------------------|
     |-5h7-5-5-5-5-5-x-5-5-|
    
     Then:
     |------------|
     |------------|
     |------2-2-0-|
     |-2--2-------|
    
     Next:
     |------------|…
  • Main Part: Repeated through most of the song
     |--------------------------------------------|
     |----------------------------------------3-3-|
     |---0-1-0----3-3------------0-1-0----3-3-----|
     |-3-------3-------1-1-----3-------3----------|…
  • Intro (x2)
    
    G|--------------------------------------7-7-7-9----|
    D|------------------------4-4-4--7-7-7-------------|
    A|--------------5-5-5-4----------------------------|
    E|2-2-2--5-5-5-------------------------------------|
    
    Verse…
  • Intro/Chorus : 
    
          A                                                      C#m              
    e-------------5----------5--------------------------4-------
    b-------------5----------5--------------------------5-------
    g--------6----------6-------------------------------6-------
    d--------7----------7-------------------------------6-------
    a--------7----------7---------------------------3---4-------
    e---5---------------------------5---5-----0-----------------…
  • Intro:
    [-5--x-5-x-x--5--5--x-x-x--5--x--5--5--x-x-x--5--x-x-x--5---5--x-x-x--5--x-x-x
    [-5--x-5-x-x--5--6--x-x-x--6--x--6--5--x-x-x--5--x-x-x--5---6--x-x-x--6--x-x-x
    [-5----5-x-x--5--7--x-x-x--7--x--7--5--x-x-x--5--x-x-x--5---7--x-x-x--7--x-x-x
    [-------------------------------------------------------7--7-----------------
    [-----------------------------------------------------------5-----------------
    [-----------------------------------------------------------------------------
    
    [-5--5--x-x-x--5--x-x--5--5--x-x-x--5--x-x---5--x--x-x-x--5--5--3/4-]
    [-6--5--x-x-x--5--x-x--5--6--x-x-x--6--x-x---6--x--x-x-x--5--5--3/4-]
    [-7--5--x-x-x--5--x-x--5--7--x-x-x--7--x-x---7--x--x-x-x--5--5--4/5-]
    [----7---------7-------7-7---------7--------7--x---------7--7--5/6-]
    [-------------------------5---------5--------5----------------------]
    [-------------------------------------------------------------------]
    
    Intro/Solo:
    [----5-3------------------8-8-8-----7--8-7-5-------]
    [--------5-3/-------------------5-5----------------]
    [-7/----------5-2----------------------------------]
    [-----------------5/-3-----------------------------]
    [--------------------------------------------5-6-7-]
    [--------------------------------------------3-4-5-]
    
    Verse:
    [---5--5--5--3--1--1--3/4-----5--5--5--3--1--1--3/4-]
    [-4-5--5--5--4--1--1--3/4-----5--5--5--3--1--1--3/4-]
    [-4-5-----5--4--2--2--4/5-----5--5--5--4--2--2--4/5-]…
  • VERSE : D C G D
    
    CHORUS: C G C G
            C G D
    
    Here's basically how it goes:
    
    Verse:
    
    D         C                   G               D
    I aint no prophet, Dont wanna cure no damn disease
    
    D                 C           G…
  • Intro:
     |------------------------------------------------|
     |--------------------------------------------(5)-|
     |-8---8-8-8--8---8-8-8-----------------(4)---(3)-|
     |---8----------8--------5-0-5-5-5-(5)------------|
    
     Verse:…
  • Verse
    Theres a million variations, pretty simple to figure out, try 'em
     |---------------------------------------------------------------|
     |--------------------7------------------------------------------|
     |-5-0h5-5-0h55-5-0h5--------------------------------------------|…
  • Intro: 0:00
    G|------------------------------------------------------------------|
    D|------------------------------------------------------------------|
    A|------6-10------6-10-----3-6------3-6-----5-8------5-8-----2-5----|
    E|--8-8------8888------4-4-----4444-----6-6-----6666-----3-3-----3*-|
    
    Time:…
  • G---------------------------------------------------------------------------
    ------------------------------------
    D---------------------------------------------------------------------------
    -------------------------------------
    A--------------------------5-5-5-5-5-5-5-5-5--8-8-8-8-8-8-8-8--10-10-10-10-1
    0-10-10-10-
    E---3-3-3-3-3-3-3-3---------------------------------------------------------
    --------------------------------
    
    Its…
  • Intro:
     |----------------------|
     |----------------------|
     |----------(2)-----(4)-|
     |-(5)------------------|
    
     Bridge:
     |-10-10-10--7-7-7--5-5-5---------|
     |------------------------7--5----|
     |------------------------------8-|…
  • Intro:
     |--------------------------------------------|
     |--------------------------------------------|
     |-----------------------3-3-3-3-3--5-5-5-5-5-|
     |-3-3-3-3-3--3-3-3-3-3-----------------------|
    
     Main verse: Played…
Наверх