Аккорды «Suicidal Tendencies»

Suicidal Tendencies
В 1981 году в Лос-Анджелесе, что в штате Калифорния, вокалист Майк Мьюр основал хардкор-группу с провокационным названием "Suicidal Tendencies". Его сообщниками стали гитарист Грант Эстес, басист Луичи Майорга и драммер Эмери Смит. Ничего особенного команда из себя не представляла, и пользовалась лишь относительной популярностью среди скейтеров и панков. Постепенно ребята поднакопили некоторый музыкальный опыт и обрели в кругах андеграунда достаточную известность, чтобы на них обратили внимание… Читать полностью... В 1981 году в Лос-Анджелесе, что в штате Калифорния, вокалист Майк Мьюр основал хардкор-группу с провокационным названием "Suicidal Tendencies". Его сообщниками стали гитарист Грант Эстес, басист Луичи Майорга и драммер Эмери Смит. Ничего особенного команда из себя не представляла, и пользовалась лишь относительной популярностью среди скейтеров и панков. Постепенно ребята поднакопили некоторый музыкальный опыт и обрели в кругах андеграунда достаточную известность, чтобы на них обратили внимание записывающие студии. Группе поступило предложение от инди-лейбла "Frontier", и в 1983 на нем вышел одноименный дебют "Suicidal Tendencies". Неожиданно для всех пластинка стала самым продаваемым на тот момент хардкор-альбомом. А клип на хитовую композицию "Institutionalized" удостоился чести крутиться на MTV, что в среде хардкорщиков происходило не так уж часто. Несмотря на такой расклад, они не спешили брать к себе "Suicidal Tendencies". Более того, начали уже ходить слухи, что команда распалась, но тут как раз Майку удалось пристроить свой проект на "Caroline Records". К тому времени места Эстеса и Смита заняли Роки Джордж и Эр-Джи Эррера. С их приходом саунд "Suicidal Tendencies" приобрел трэшевые оттенки. Обновленный коллектив произвел на свет альбом "Join the Army", содержавший популярную скейт-панковскую вещь "Possessed to Skate". Постепенно творчеством группы начали интересоваться и металлисты, а вскоре "ST" получили контракт от "Epic records". Перед этим состав еще раз обновился, место Майогры занял Боб Хетскоут, а кроме этого был добавлен второй гитарист, Майк Кларк. Эта конфигурация записала альбом с длиннющим названием "How Will I Laugh Tomorrow When I Can't Even Smile Today", на котором еще сильнее обозначился отход от хардкора в сторону трэш и хэви. В подобном же духе была сделана пластинка "Controlled By Hatred/Feel Like Shit...Dejа Vu", состоящая из двух ранних EP. Начало 90-х "Suicidal Tendencies" ознаменовали выпуском "золотого" альбома "Lights, Camera, Revolution" с композицией "You Can't Bring Me Down", получившей прописку на MTV. Бас-гитару на этот раз в руках держал любитель фанка Роберт Трухильо, что привнесло соответствующий колорит в звучание пластинки. Пытаясь расширить свою аудиторию, летом 1991-го группа отправилась разогревать прог-металлистов "Queensryche", а затем выпустила самый экспериментальный в своей дискографии альбом "The Art of Rebellion". Вслед за этим Мьюр и Трухильо замутили фанк-металлический сайд-проект "Infectious Grooves". Постепенно новая группа стала отнимать у них все больше и больше времени, а "Suicidal Tendencies" отошли на задний план. Под этой вывеской в 1994-м вышел последний студийник "Suicidal for Life", а в 1995 году группа распадается и проект на долгий период был вообще заброшен. Лишь в 1997-м Мьюр реанимировал "ST", причем из "старичков" на этот раз компанию ему составил только Кларк, а остальными членами команды стали Дин Плезантс (гитара), Стив Бруннер (бас) и Рон Бруннер младший (ударные). Скрыть...
Популярные аккорды Suicidal Tendencies:
алфавиту | просмотрам | случайно
  • Intro
    |----------------------------|
    |----------------------------|
    |----------------------------|
    |---------10-x8--9-x4--7-x4--|
    |--7-x16--8------7-----5-----|
    |--5-------------------------|
    
    Bass Riff
    |--------------------------|
    |--------------------------|
    |--5--7-8-7-5--3--5-6-5-3--|
    |--------------------------|
    
    Verse
    |---------------|-------------------|
    |---------------|-------------------|
    |---------------|-------------------|
    |---------------|--8-x8-7--5-7-5-7--|
    |--5-5-/8-8888--|--6----5--3-5-3-5--|
    |--3-3-/6-6666--|-------------------|
    
    Chorus
    |-----------------------|
    |-----------------------|
    |-----------------------|
    |------10-9-7-----------|
    |--9-9-8--7-5-10-x-7-8--|
    |--7-7--------8--x-5-6--|
    
    Bridge…
  • Intro
                3x              1x
    G:------------------------------------:
    D:-----9-9-9-----------9-9-9----------:
    A:-----7-7-7---8--9----7-7-7--8-9-8---:
    E:-------------6--7-----------6-7-6---:
    
    Verse
    
    G:---------------------------------:
    D:---------------------------------:
    A:--6-6----------------------------:
    E:------5-5-6--6-5-----------------:
    
    Chorus
    
    G:---------------------------------:
    D:--8-8----------------------------:
    A:--6-6-7-7-8--8-7-----------------:
    E:------5-5-6--6-5-----------------:…
  • tuning:  standard  E A D G
    
    verse
    
    A-------------------------------------679----
    E--7-7-8-8----7-7-8-8----7-7-8-8----7-----8---
    
    A---------  
    E--7-7-8-8   >  repeat this 24 times for verses 1 and 3, 20 for verse 2
    
    around…
  • Intro     Chorus
    G----------------------------------
    D----------------------------------
    A---------------------------------
    E---22-44--22-44--22 44--5
    
    Verse
    G----------------------------
    D-----------------------------
    A----555-2-444----------
    E-------------------4-------…
  • Intro and after last chorus 
    
    
    G |----------------------------------------------------------- 
    D |----------------------------------------------------------- 
    A |-----7----------------------7------------------------------…
  • Intro, Verse , Outro
    
    G:----------------------------------:
    D:--13-/--9-9-9------5-/--9-9-9-----:
    A:--11-/--7-7-7------3-/--7-7-7-----:
    E:----------------------------------:
    
    
    Chorus
    
    G:-------------------------------------------:
    D:--12--12----14--14----9--9----5-/--9--9----:
    A:--10--10----12--12----7--7----3-/--7--7----:
    E:-------------------------------------------:…
  • ---------------------------------------------------------------------
    ---------------------------------------------------------------------
    ---------------------  repeat ---------------------------------------
    ---6-----------------…
  • intro - slow (with heaps of vibrato)
    e-----------------------------------------------------------------
    b--5------------12-------------8-----------15-----------11--------
    g-----------------------------------------------------------------
    
    
    e-----------------0-----------------
    b-----------3---2---2------0---0----
    g---------0---0-------0--3---3------
    d-------2---------------------------
    a-----2-----------------------------
    e---0-------------------------------
    
    e-----------0-------------0---------------0-----------------------
    b-------0-----0---3---0-----0---------0-----0---3---1-0-----------
    g-----0---0-----0---0---0-----0-----0---0-----0---0-----2-0-------
    d-------------------------------2---------------------------2-0---
    a---3-----------------------------0-------------------------------
    e-----------------------------------------------------------------
    
    e-----------0---5---3-2^3^2-----------------0---------------------
    b---------0-----------------3-------0-3---------------------------
    g-------0-----0---0---------------0-----0-------------------------
    d-----2-------------------------2---------2-----------------------
    a---3-------------------------0-----------------------------------
    e-----------------------------------------------------------------
    
    e-------------------------------------------0---------------------
    b-----------3---2---------------------3---2---2-----0---0---------
    g---------0---0---------------------0---0-------0-3---3-----------
    d-------2-------------------------2-------------------------------
    a-----2-------------------------2---------------------------------
    e---0-------------------------0-----------------------------------
    
    e-----------------------------------------------0---------------0-
    b-----------3---2-------------------------3---2---2-----0-------0-
    g---------0---0-------------------------0---0-------0-3---3-0---0-
    d-------2-------------------------------------------------------2-
    a-----2---------------------------------------------------------2-
    e---0-----------------------------------------------------------0-
    
    rake…
  • A-------5-----7-----8-----7---5/7-----5---7--87---5/7-5/7----------
    E---0-0-3-0-0-5-0-0-6-0-0-5-0-3/5---0-3-0-5--65-x-3/5-3/5----------
    
    this next bit is an alternate ending to the above riff
    D--------------------------------------------1211---9--10----------
    A--------------------------------------------109--x-7-x-8----------
    
    D---------5-4/5---------5-7/8---------5-4/5---------8-75-----------
    A---------5-4/5---------5-7/8---------5-4/5---------8-75-----------
    E---0-000-3-2/3---0-000-3-5/6---0-000-3-2/3---0-000-6-53-----------
    
    g---------5--------------------------------------3------------------
    D---5--2--5---------5-4/5---------5-7/8----5--2--3------------------
    A---5--2--3---------5-4/5---------5-7/8----5--2--1------------------
    E---3--0------0-000-3-2/3---0-000-3-5/6----3--0---------------------
    
    g---5---2---4-------------------------------------------------------
    D---5---2---4---5-4-2-----------------------------------------------
    A---3---0---2---5-4-2-----2-----2-----2-----------------------------
    E---------------3-2-0-0-0-0-0-0-0-0-0-0-0-0-------------------------…
  • |----------------4--4-4-4-4/12-12-12-12---| 
    |-------------4-----4-4-4-4/12-12-12-12---| intro, when they begin to   
    |----------4--------4-4-4-4/12-12-12-12---| jam, destroy and i dunno
    |-------3---------------------------------|…
  • |---------------|
    |---------------|
    |---------------|
    |-------------0-|
    |-0-2-3-0-2-3---|
    |---------------|
    
    |---------------------------------------------------------|
    |---------------------------------------------------------|
    |---------------------------------------------------------|
    |--------------2------------7/9-----9-------------------0-|
    |-2------54---0------------5/7-----7-------0-2-3-0-2-3---|
    |-0--0-0-32-0----0-0-0-0-0-----0-0---0-0-0---------------|…
  • INTRO
    G[---------------]
    D[---------------]
    A[---------------]		( > - Means Strum )
    E[------0>-------]
    
    (Listen to the song to get the rhythm and timing)
    
    	VERSE
    G[---------------]
    D[---------------]
    A[------7>--8>---] x4
    E[--3>-----------]…
  • e-------------------------------------------------------------
    b-------------------------------------------------------------
    g-------------------------------------------------------------
    D---2-----------------5--------7--------2---------------------
    A---0--------3--------3--------5--------0---------------------
    E------------1------------------------------------------------
    
    e-------------------------------------------------------------
    b-------------------------------------------------------------
    g--------5---4---5--------------------------------------------
    D--------5---4---5--------------------------------------------
    A---0-0----x---x----------------------------------------------
    E-------------------------------------------------------------
    
    e-------------------------------------------------------------
    b-------------------------------------------------------------
    g-------------------------------------------------------------
    D---2------------------5-4-2----------------------------------
    A---0--0-00-5/7-5/7--5-3-2-0-3------------------------3-------
    E-----------3/5-3/5--3-------1--1--111-11-111-11-111-11-------…
  • Tune To E Standard Tuning
    
     Riff 1   Play 4 Times
    |----------------------------------|
    |----------------------------------|GTRS
    |----------------------------------|1&2
    |-------6-------------0---------0--|
    |----7-----7-------4---------2-----|
    |-0-------------5---------3--------|…
  • [Arpegio]
    e|--------1-----------------|-----------------------------------------------
    b|------3---3---3-----------|-----------------------------------------------
    g|*---2-------2------------*|-----------------------------------------------
    D|*-0--------------0----sl-*|-----------------------------------------------
    A|-------------------5--3--|-----------------------------------------------
    E|--{Dm}--------------------|-----------------------------------------------…
  • Intro 
    4*:
    A|--5-5-5-3---333-333-333-333-333--| 
    
    1*
    A|--5-5-5-2--| 
      
    
    Verse
    3*:
    A|--222-222-222-222-222-----------2--222-222-222-222-222--0-3-3-3-2---| 
    E|-----------------------0-3-2-0--------------------------------------|…
  • g-----------9------------------------5---------------
    d---2-------9-----7/9-7-------3------5---------------
    a---2-------7-----5/7-5-------3------3---------------
    e---0---------------------0-0-1--0-0----0-0----------
    
    g-----------9------------------------5---------------
    d---2-------9-----7/9-7-------3------5---------------
    a---2-------7-----5/7-5-------3------3---(slow…
  • INTRO
    |-----------|-----------|--------------------------------------------------|
    |-----------|-----------|--------------------------------------------------|
    |-----------|-----------|-7------------------------------------------------|
    |-2-2-2-2-2-|-2-2-2-2-2-|-7------------------------------------------------|
    |-2-2-2-2-2-|-2-2-2-2-2-|-5------------------------------------------------|
    |-0-0-0-0-3-|-0-0-0-0-3-|--------------------------------------------------|…
  • Clean guitar for this bit
    
    b--------0-0^1^0----------1-0-1------------0-0^1^0------------------------
    g------2---------2--------------0--------2---------2--------0-----0-------
    D----2-------------2----2---------2----2-------------2----2-----4---2/42-
    A--0------------------3--------------0------------------3-----5-----3/53-
    
    
    These…
  • Slow main riff (well as slow as it gets)
    e----------------------------------------------------------------
    b----------------------------------------------------------------
    g----------------------------------------------------------------
    D---2--------------3-----3-----3-2--------------3-----5-----3----
    A---2--------------1-----1-----1-2--------------3-----5-----3----
    E---0--0-0-0-0-0-0---0-0---0-0---0--0-0-0-0-0-0-1-0-0-3-0-0-1----
    
    
    Build…
  • G---------------------------------------------------------------------
    D---------------------------------------------------------------------
    A---------------------------------------------------------------------
    E--0-0-0-2-0-3-0-5-0-0-0-2-0-5-0-3------------------------------------…
  • Intro and Verse
    
    G:----------------------------------:
    D:----------------------------------:
    A:--5/7-7---7/8-8---5/8-8---5/8-8---:   
    E:--3/5-5---5/6-6---3/6-6---3/6-6---:
    
    
    Chorus
    				
    G:------------------------------:…
  • RIFF 1
    G|--------------------------------------------------|
    D|--------------------------------------------------|
    A|--2--2--2--2--3--3--3--3--0--0--0--0--0--0--0--0--|
    E|--------------------------------------------------|
    
    RIFF…
  • e---------------------------------------------------------------------
    b---------------------------------------------------------------------
    g---------------------------------------------------------------------
    d------2-----5-----4-----3--------------------------------------------
    a------2-----5-----4-----3-------2------------------------------------
    e--0-0-0-0-0-3-0-0-2-0-0-1-0-0-1--------------------------------------
    
    e---------------------------------------------------------------------
    b---------------------------------------------------------------------
    g--7-------5--5-------------------------------------------------------
    d--7---5---5--5---3-3-------2-----3---0-----2--3-2-0-2----------------
    a--5-x-5-x-3--3-x-3-3-------2-----3---0-----2--3-2-0-2----------------
    e----x-3-x------x-1-1---0-0-0-0-0---0---0-0-0-------------------------
    
    e---------------------------------------------------------------------
    b---------------------------------------------------------------------
    g---------------------------------------------------------------------
    d------8-----8-----87-5/7-----5/7-------8-----8-7----5-4----4-5-4----
    a------8-----8-----87-5/7-----5/7-------8-----8-7----5-4----4-5-4----
    e--0-0-6-0-0-6-0-0-65-3/5-x-0-3/5---0-0-6-0-0-6-5--0-3-2--0-2-3-2----
    
    e---------------------------------------------------------------------
    b---------------------------------------------------------------------
    g---------------------------------------------------------------------
    d------4-----5---2-----4-5-4-2-4--------------------------------------
    a------4-----5---2---4-4-5-4-2-4--------------------------------------
    e--2-2-2-2-2-3-2-0-0-2-2-3-2-0-2--------------------------------------…
  • Intro
    
    G:----------------------------------:
    D:--4---4---4---4-------------------:
    A:--2---2---2---2-------------------:
    E:----------------------------------:
    
    
    Verse
    
    G:------------------------------------------:
    D:---------8-8-8---5-/-7--5----------------:
    A:--7-7-7--6-6-6---3-/-5--3--5-5-5---------:
    E:--5-5-5---------------------3-3-3---------:
    
    Chorus…
  • VERSE
    
    G:-------------------:
    D:-------------------:
    A:--3>---------------:
    E:-----4>--1>--3>----:	     ( > Means strum )
    
    
    	 CHORUS
    
    G:---------------------:
    D:---------------------:
    A:--5>-------7>---3>---:
    E:-----5-6>-----7------:…
  • Intro and Verse
    
    E:--1>--4>--3>--:    X10
    
    
    Pre-Chorous
    
    G:--------5------:
    D:---------------:
    A:------3--------:   X4
    E:--6-6-----3----:
        s s s p s
    
    
    G:------6---6-----5---5-----3---3-------:
    D:--------------------------------------:
    A:--4-4---4---3-3---3---1-1---1---1-----:
    E:----------------------------------1---:…
  • ^  +  ^   +  ^                        +  ^  +  ^
    e---------0--0--0---0--0------------------------0--0--0--0---------|
    b---------0--0--0---0--0------------------------0--0--0--0---------|
    g---------0--0--0---0--0---2h4--5--4--2-----2---2--2--2--2---------|
    d---------0--0--0---0--0---2-------------2--3---3--3--3--3---------|
    a---------2--2--2------2-------------------------------------------|
    E---0-----0--0--0------0-------------------------------------------|
    
    Thats…
  • Verse
    
    	B----3---3-x------------------------------3---3-x-----------------------------
    	E---------------------2--3---2-3---2---------------------2--3--2----5/3-------
    	A----------------5-------------------------------------5----------------------
    	D-----------------------------------------------------------------------------
    	G-----------------------------------------------------------------------------…
  • ||-----------------------------------------------------| 
    ||-----------------------------------------------------| very fast  
    ||-----------------------------------------------------| X3
    ||-9--9--9--9--11-11-11-11-12--12--12--12--11-11-11-11-|…
  • INTRO			       VERSE 1
    
    G[----------]		[--------------------------------]
    D[----------]		[--------------------------------]
    A[---3--5---] x1	[--8-8---3-3-3---11-11-11-11-11--] x7
    E[----------]		[--------------------------------]
    
    
    		VERSE…
  • VERSE:
    e|-------------------------------------------------|
    B|-------------------------------------------------|
    G|-5--5--5-5-5-------------7--7--7-7-7-------------|
    D|-5--5--5-5-5-7--7--7-7-7-7--7--7-7-7-8--8--8-8-8-|
    A|-3--3--3-3-3-7--7--7-7-7-5--5--5-5-5-8--8--8-8-8-|
    E|-------------5--5--5-5-5-------------6--6--6-6-6-|
    
    DISTORTED…
Наверх