Аккорды Свидетельство о смерти - У меня есть голова

Добавлено: @romashka
Дата добавления: 15 Июня 2020г.
Рейтинг:
0.0
Просмотров: 17
Транспонировать - +
Вступление:
Dm(V) A#(VI) F A(V)
E|-----------------------------------------------------
B|--6--8--10----------------13--11--11------10--11-----
G|------------10--10----10--------------10----------9--
D|-----------------------------------------------------
A|-----------------------------------------------------
E|-----------------------------------------------------

Куплет:
        Dm(V)         A#(VI)     F       A(V)     A
Занесло попутным ветром невзначай к тебе.
       Dm(V)         A#(VI)     F       A(V)
Ложкой дёгтя в бочке мёда, радостью в беде.
       Dm(V)         A#(VI)     F       A(V)
Ты припомни, как давно я в этих был местах,
        Dm(V)         A#(VI)     F       A(V)
Как солёный вкус от слёз был на твоих губах.

Припев:
G(III)  A#(VI)   F      A(V)
Для чего грустно и смешно?
G(III)  A#(VI)   F     A(V)
Для кого жизнь ценней всего?
G(III)  A#(VI)   F   A(V)
И зачем глупые слова?
G(III)  A#(VI)   F      A(V)
Для чего у меня есть голова?

Куплет:
     Dm(V)         A#(VI)     F       A(V)
Накрывало синим небом, в небе ни души.
     Dm(V)         A#(VI)     F       A(V)
Согревало горьким спиртом, были бы гроши.
      Dm(V)         A#(VI)     F       A(V)
Вдаль вело по павшей с неба дождевой воде,
     Dm(V)         A#(VI)     F       A(V)
А потом попутным ветром занесло к тебе.

Припев:
G(III)  A#(VI)   F      A(V)
Для чего грустно и смешно?
G(III)  A#(VI)   F      A(V)
Для кого жизнь ценней всего?
G(III)  A#(VI)   F      A(V)
И зачем глупые слова?
G(III)  A#(VI)   F      A(V)
Для чего у меня есть голова?

Проигрыш:
Dm(V)  A#(VI)   F      A(V)
E|-----------------------------------------------------
B|--6--8--10----------------13--11--11------10--11-----
G|------------10--10----10--------------10----------9--
D|-----------------------------------------------------
A|-----------------------------------------------------
E|-----------------------------------------------------

Припев:
G(III)  A#(VI)   F      A(V)
Для чего грустно и смешно?
G(III)  A#(VI)   F      A(V)
Для кого жизнь ценней всего?
G(III)  A#(VI)   F      A(V)
И зачем глупые слова?
G(III)  A#(VI)   F      A(V)
Для чего у меня есть голова?
G(III)  A#(VI)   F      A(V)
Выпить литр водки и упасть,
G(III)  A#(VI)   F      A(V)
У тебя что-нибудь украсть.
G(III)  A#(VI)   F      A(V)
А любовь – это лишь слова
G(III)  A#(VI)   F      A(V)
Для лохов, а у меня есть голова!

Проигрыш:
Dm(V)  A#(VI)   F      A(V)
E|-----------------------------------------------------
B|--6--8--10----------------13--11--11------10--11-----
G|------------10--10----10--------------10----------9--
D|-----------------------------------------------------
A|-----------------------------------------------------
E|-----------------------------------------------------
Наверх