Аккорды Swans - Helpless Child

Добавлено: @romashka
Дата добавления: 27 Февраля 2022г.
Рейтинг:
0.0
Просмотров: 25
Транспонировать - +
[Проигрыш 1]

[Куплет 1]:

F#m
Now you be the mother and
C#/A
I'll be your fool
F#m
I'll hide myself deep inside
D/F#
Your crimson pool

F#m
The muddy water runs
C#/A
Beneath your folds
F#m
You won't let me breathe;
D/F#
You won't let me go

F#m
Now you'll be the stranger and
C#/A
I'll be the white-skinned son
F#m
You'll blacken my innocence
D/F#
With sugar and opium

[Куплет 2]:

F#m
The children were suffocating
C#/A
Down in your damp cave
F#m
And you were the mother
D/F#
And I was the sleeping slave

F#m
Protect me from violence
C#/A
Hold me in your cool lips
F#m
You'll drug me with kindness
D/F#
So I can pretend I exist
F#m

Now you be the only child
C#/A
I'll suck on your breast
F#m
You'll feed me with gasoline
D/F#
I'll burn my name in your head

[ Проигрыш 2 ]

--------------------------------

Как играть С#/A:

E|--1--
B|--2--
G|--1--
D|--3--
A|--0--
E|-----
(не стоит делать на басовой Ля слишком большой акцент, она нужна для добавления диссонансной краски)

F#m желательно слегка разбавлять F#m#5 вот так:

E|--2--
B|--3--
G|--2--
D|--4--
A|--4--
E|--2--


Проигрыш 1:

let ring
    1        2        3        4        повторять пока не надоест
E|--------------------------------------:|--
B|--2--------------2--------------------:|--
G|--2--------4--------2-----------------:|--
D|--4-----------------------------------:|--
A|--4-----------------------------------:|--
E|--2-----------------------------------:|--

Проигрыш 2:

let ring
    1        2        3        4        5        6        7        8        x2
E|--------------------------------------2-----------------------------------:|--
B|--2-----------------5-----------------2-----------------------------------:|--
G|--2-----------------2-----------------2-----------------------------------:|--
D|--4-----------------4-----------------4-----------------------------------:|--
A|--4-----------------4-----------------4-----------------------------------:|--
E|--2-----------------2-----------------2-----------------------------------:|--

let ring
    1        2        3        4        5        6        7        8        x2
E|--2-----------------0-----2-----0-----------5-----------------------------:|--
B|--3-----------------3-----3-----3-----3-----3-----------------------------:|--
G|--2-----------------2-----2-----2-----2-----2-----------------------------:|--
D|--0-----------------0-----0-----0-----0-----0-----------------------------:|--
A|--0-----------------0-----0-----0-----0-----0-----------------------------:|--
E|--2-----------------2-----2-----2-----2-----2-----------------------------:|--

Проигрыш 2 повторяется до конца песни с увеличением гроскости, затем затихает на D. Во время второго проигрыша не прекращается чес в 6/8.
Наверх