Аккорды T-Bone Burnett - Oh No Darling

Добавлено: @romashka
Дата добавления: 10 Марта 2024г.
Рейтинг:
0.0
Просмотров: 54
Транспонировать - +
Tuning: Standard

Whatever your strumming pattern, try to include the following into one
of the accompanying guitars.


INTRO / CHORUS / VERSE
  D *         D        D *          D *                  A7
  1 + 2 + 3 + 4 +  1 + 2 + 3 + 4 +  1 + 2 + 3 + 4 +  1 + 2 + 3 + 4 +  
e/5-5-5-5-----2-2-|----5---5-------/5-5-5-5-----2-2-|----0---0-------|
B/7-7-7-7-----3-3-|----7---7-------/7-7-7-7-----3-3-|----2---2-------|
G/7-7-7-7-----2-2-|----7---7-------/7-7-7-7-----2-2-|----0---0-------|
D|0-----------0---|----0-----------|------------0---|----2---2-------|
A|----------------|----------------|----------------|----------------|
E|----------------|----------------|----------------|----------------|
  D *         D        G/D          D *         D        A7  D
  1 + 2 + 3 + 4 +  1 + 2 + 3 + 4 +  1 + 2 + 3 + 4 +  1 + 2 + 3 + 4 +  
e/5-5-5-5-----2-2-|---/7---7-------/5-5-5-5-----2-2-|----0---2-------|
B/7-7-7-7-----3-3-|---/8---8-------/7-7-7-7-----3-3-|----2---3-------|
G/7-7-7-7-----2-2-|---/7---7-------/0-----------2-2-|----0---2-------|
D|0-----------0---|----0-----------|------------0---|----2---0-------|
A|----------------|----------------|----------------|----------------|
E|----------------|----------------|----------------|----------------|

---------------------------------------------------------------------------

CHORDS

      E-A-D-G-B-e
D*    x-x-0-7-7-5
G/D   x-x-0-7-8-7

---------------------------------------------------------------------------
INTRO
| D | % | % | A7 |
| D | G/D | D | A7 D |

CHORUS
D
Oh no, darling, oh no
D               A7
Oh no, darling, oh no
D               G/D
Oh no, darling, oh no
D               A7 D
Oh no, darling, oh no

SOLO

(dobro)
| D | % | % | A7 |
| D | G/D | D | A7 D |

VERSE
D
See, see, darling, see, see
D                       A7
What your love has done to me
D7                 G
See, see, darling, see, see
D                  A7 D
Always treat me tenderly

CHORUS
D
Oh no, darling, oh no
D               A7
Oh no, darling, oh no
D               G/D
Oh no, darling, oh no
D               A7 D
Oh no, darling, oh no

SOLO

(guitar)
| D | % | % | A7 |
| D | G/D | D | A7 D |

(fiddle)
| D | % | % | A7 |
| D | G/D | D | A7 D |

VERSE
D
Guess what, darling, guess what
    D             A7
You really got me messed up
D7                   G
Guess what, darling, guess what
    D              A7      D
The Lord above has blessed us

CHORUS
D
Oh no, darling, oh no
D               A7
Oh no, darling, oh no
D               G/D
Oh no, darling, oh no
D               A7 D
Oh no, darling, oh no

SOLO

(dobro)
| D | % | % | A7 |
| D | G/D | D | A7 D |

(fiddle)
| D | % | % | A7 |
| D | G/D | D | A7 D |

VERSE
D
Rave on, darling, rave on
     D                  A7
I’ll buy you clothes of rayon 
D7                G
Rave on, darling, rave on
       D              A7   D
You’ll meet me at the Save-On [?]

CHORUS
D
Oh no, darling, oh no
D               A7
Oh no, darling, oh no
D               G/D
Oh no, darling, oh no
D               A7 D
Oh no, darling, oh no

SOLO (+ coda)

(guitar)
| D | % | % | A7 |
| D | G/D | D | A7 D |

(dobro)
| D | % | % | A7 |
| D | G/D | D | A7 D |

(fiddle)
| D | % | % | A7 |
| D | G/D | D | A7 D |

(dobro and fiddle)
| D | % | % | A7 |
| D | G/D | D | A7 D
Наверх