Аккорды T. Rex - Think Zinc

Добавлено: @romashka
Дата добавления: 26 Мая 2024г.
Рейтинг:
0.0
Просмотров: 19
[Intro]
N.C.
Think, think, think a, think a think a, Oh, yeah!

e|-----------------|-----------------|-----------------|-------------------|
B|-----------------|-----------------|-----------------|-------------------|
G|-----------------|-----------------|-----------------|-------------------|
D|-----------------|-----------------|-----------------|-------------------|
A|--2-4-2-4-2-4-2-0|--2-4-2-4-2-4-2-0|--2-4-2-4-2-4-2-0|-2-4-2-4-2-4-2-0---|
E|-----------------|-----------------|-----------------|-------------------|

[Verse 1]
B                  A                           B
People passing by, all through the night, they use my senses in strange ways
B                            A                       B
She knows just what you are, like a fading star, she uses my senses in strange ways

[Chorus]
              B                                            A                    B
You've got to think zinc, think a, think a, think a, think a, think a, think a, Oh
              B                                                   A           G#
You've got to think zinc, think zinc, zinc, think zinc a, think a zinc, zinc, Oh

[Verse 2]
B                  A                           B
People passing by, all through the night, they use my numbers in strange ways
B                   A                             B
Over the telephone, you should hear them groan, I crossed his wires in strange ways

[Chorus]
              B                                            A                    B
You've got to think zinc, think a, think a, think a, think a, think a, think a, Oh
              B                                                   A           G#
You've got to think zinc, think zinc, zinc, think zinc a, think a zinc, zinc, Oh

[Bridge]
       C                                         Em
e|---------------------------------------------|------------------------------|
B|---------------------------------------------|------------------------------|
G|---------------0-2-0--4--2---0---------------|------------------------------|
D|------------2-----------------------2---0----|-2-----2---0---0-2-2-0---0----|
A|-----3-------------------------------------3-|-------------2---------2------|
E|---------------------------------------------|------------------------------|
       All my favourite people child, you gotta  think zinc

       C                                         Em
e|---------------------------------------------|------------------------------|
B|---------------------------------------------|------------------------------|
G|---------------0-2-0--4--2---0---------------|------------------------------|
D|------------2-----------------------2---0----|-2-----2---0---0-2-2-0---0----|
A|-----3-------------------------------------3-|-------------2---------2------|
E|---------------------------------------------|------------------------------|
       All my favourite people child, you gotta  think zinc

       D/F#
e|---------------|-------------|
B|---------------|-------------|
G|---------------|-------------|
D|-----4-4-2-4-2-|--4-4-2-4----|
A|---------------|-------------|
E|---------------|-------------|

[Verse 3]
B                  A                           B
People passing by, all through the night, they use my senses in strange ways
B                            A                       B
She knows just what you are, like a fading star, she uses my senses in strange ways

[Chorus]
              B                                            A                    B
You've got to think zinc, think a, think a, think a, think a, think a, think a, Oh
              B                                                   A           B
You've got to think zinc, think zinc, zinc, think zinc a, think a zinc, zinc, Oh
              C                                            Bb                   C
You've got to think zinc, think a, think a, think a, think a, think a, think a, Oh
              C                                                   Bb          A B A G#
You've got to think zinc, think zinc, zinc, think zinc a, think a zinc, zinc, Oh

[Verse 4]
B                  A                           B
People passing by, all through the night, they use my senses in strange ways
B                            A                       B
She knows just what you are, like a fading star, she uses my senses in strange ways

[Verse 4]
              B                                            A                    B
You've got to think zinc, think a, think a, think a, think a, think a, think a, Oh
              B                                                   A           G#
You've got to think zinc, think zinc, zinc, think zinc a, think a zinc, zinc, Oh

[Outro]
N.C.
Think zinc, think zinc baby. Think zinc, think zinc baby…
Музыка не только фактор облагораживающий, воспитательный. Музыка – целитель здоровья (Бехтерев)
Мы стремимся к созданию контента, соответствующего всем нормам законодательства и уважающего интеллектуальную собственность. Мы также придаем большое значение тому, чтобы не задеть никого и не оскорбить чьи-либо чувства. Если у вас есть вопросы или претензии по размещенному материалу, пожалуйста, сообщите нам об этом на указанный адрес электронной почты: [email protected].
Шрифт
-
0
+
Прокрутка
-
0
+
Стоп
Наверх