Аккорды «Taking Back Sunday»

Taking Back Sunday
Taking Back Sunday - альтернативная рок-группа из США, сформированная в Лонг-Айленд, штат Нью-Йорк в 1999 году, в Лог-Айленде, штат Нью-Йорк. Изначально пятеро парней основали группу ещё в ноябре 1999 года, но состав, который можно назвать самым долгосрочным основался в декабре 2002 года. Дебютный альбом "Tell All Your Friends" был записан в составе Adam Lazzara (вокал, гитара), John Nolan (вокал, гитара), Eddie Reyes (гитара), Shaun Cooper (бас-гитара) и Mark O'Connell (ударные). Вскоре… Читать полностью... Taking Back Sunday - альтернативная рок-группа из США, сформированная в Лонг-Айленд, штат Нью-Йорк в 1999 году, в Лог-Айленде, штат Нью-Йорк. Изначально пятеро парней основали группу ещё в ноябре 1999 года, но состав, который можно назвать самым долгосрочным основался в декабре 2002 года. Дебютный альбом "Tell All Your Friends" был записан в составе Adam Lazzara (вокал, гитара), John Nolan (вокал, гитара), Eddie Reyes (гитара), Shaun Cooper (бас-гитара) и Mark O'Connell (ударные). Вскоре после выпуска альбома, John Nolan и Shaun Cooper покинули группу из-за личных разногласий, и сформировали группу Straylight Run. На их место пришли Fred Mascherino и Matt Rubano, и совместно они записали альбом "Where You Want to Be". Их последняя пластинка "Louder Now" была выпущена в 2006 году в неё вошли такие композиции как - "Make Damn Sure", и "Liar (It Takes One to Know One)". Позже группа выпустила сингл "Twenty-twenty surgery", но только для Соединенного Королевства. Альбом "Louder Now" получил много лестных отзывов от критиков и был назван альбом 2006 года, по версии журнала "Kerrang". 30.10.2007 состоялся релиз сборника песен "Notes From The Past". А 20.11.2007 релиз CD и DVD "Louder Now:Parttwo", куда вошли концертные записи и некоторые ранее неизданные песни ("Brooklyn", "Sleep"). После участия в "Projekt Revolution 2007" Fred Mascherino принял решение покинуть группу и заняться сольным проектом (проект получил название "The Color Fred"). 5 мая 2008 г. группа официально назвала нового участника группы. Им стал Matthew Fazzi, до этого выступавший с группой "Facing New York". Скрыть...
Популярные аккорды Taking Back Sunday:
алфавиту | просмотрам | случайно
  • Tuning: Standard (EADG)
    
    VERSE:
    G|---------------------------------------------------------------------------|
    D|---------------------------------------------------------------------------|
    A|-4-4-4-4-4-4-4-4--0-0-0-0-0-0-0-0--2-2-2-2-2-2-2-2-2-2-2--6-6-6-6----------|
    E|---------------------------------------------------------------------------|
    
    CHORUS:…
  • INTRO x4
    e|------------------------|
    B|------------------------|
    G|--666--777777777777-----|
    D|--666--777777777777-----|
    A|--444--555555555555--0--|
    E|------------------------|
        xxx  xxxxxxxxxxxx  x
    
    
    VERSE
    e|------------------------------
    B|------------------------------
    G|--666--777777777777-----------
    D|--666--777777777777-----…
  • Intro/Verse (x4) 
    G|---------------------------------------------------------------------------------------- 
    D|---------------------------------------------------------------------------------------- 
    A|--88-88-88-88-8-8---1010-1010-1010-1010-10-10---1212-1212-1212-1212-12-12---------------…
  • Intro 
    ------------ 
    ------------ 
    --------6--- 
    -7--9--9--7- 
    
    Intro 2 
    1st time 2nd Time 
    --------------------------|-----------|--------| 
    -976----6-6-6-------------|-----------|--------| 
    ----9-9-------------------|-9-7-6-4---|-9-7----|…
  • NORMAL TUNING
    
    INTRO/VERSE
                                         
    Guitar 1
    |-----------------------------|
    |--0-0-0-0-0-0--0-0-0--0-0-0--|
    |--4-4-4-4-4-4/-6-6-6/-8-8-8--|
    |-----------------------------|
    |-----------------------------|
    |-----------------------------|x12
    
    Guitar…
  • Intro 
    E|-------------------------------------------------| 
    B|-------------------------------------------------| 
    G|-55555--555555/1212121212--1212121212-10/--------| 
    D|-55555--555555/1212121212--1212121212-10/--------|…
  • E-----
    B-----
    G--4--
    D--5-- (with alot of reverb and flanger.)
    A--2--
    E-----
    
    INTRO: (After strange drum sounds you get this) By Guitar 1
    E----------------------
    B----------------------
    G--4444/5555-4444/5555-
    D--5555/5555-5555/5555-…
  • INTRO
    Guitar 1
    E|---------------------------------|
    B|-77777778-7777778-3333335-5555555|
    G|-00000000-0000000-0000000-0000000|
    D|-xxxxxxxx-xxxxxxx-xxxxxxx-xxxxxxx|
    A|-77777777-5555555-3333333-3333333|5x
    E|---------------------------------|
    
    
    VERSE
    Guitar…
  • .Introduction/Verse.
    E----------------------------------------------------------------
    B---5-5-5-5-5-5-5-5---3-3-3-3-3-3-3-3----------------------------
    G---7-7-7-7-7-7-7-7---5-5-5-5-5-5-5-5----------------------------
    D---7-7-7-7-7-7-7-7---5-5-5-5-5-5-5-5----------------------------
    A----------------------------------------------------------------
    E----------------------------------------------------------------
    
    
    
    .Chorus.
    E----------------------------------------------------------------
    B---5---7---3-3--------------------------------------------------
    G---7---9---5-5--------------------------------------------------
    D---7---9---5-5--------------------------------------------------
    A----------------------------------------------------------------
    E----------------------------------------------------------------
    
    
    .Verse.
    E----------------------------------------------------------------
    B---5-5-5-5-5-5-5-5---3-3-3-3-3-3-3-3----------------------------
    G---7-7-7-7-7-7-7-7---5-5-5-5-5-5-5-5----------------------------
    D---7-7-7-7-7-7-7-7---5-5-5-5-5-5-5-5----------------------------
    A----------------------------------------------------------------
    E----------------------------------------------------------------
    
    
    .Chorus.
    E----------------------------------------------------------------
    B---5---7---3-3--------------------------------------------------
    G---7---9---5-5--------------------------------------------------
    D---7---9---5-5--------------------------------------------------
    A----------------------------------------------------------------
    E----------------------------------------------------------------
    
    .Bridge.
    E----------------------------------------------------------------
    B---5-5-5-5-5-5-5-5---3-3-3-3-3-3-3-3----------------------------
    G---7-7-7-7-7-7-7-7---5-5-5-5-5-5-5-5----------------------------
    D---7-7-7-7-7-7-7-7---5-5-5-5-5-5-5-5----------------------------
    A----------------------------------------------------------------
    E----------------------------------------------------------------…
  • * Palm Muted
    
    Guitar One Intro/Verse 4x (echo pedal option)
    E------------------------------------------------------------------------|
    B-7--7--7--5--5--5--7--7--7--5--5--5--2--2--2--3--3--3--2--2--2--3--3--3-|
    G------------------------------------------------------------------------|
    D------------------------------------------------------------------------|
    A-5--5--5--5--5--5--5--5--5--5--5--5--2--2--2--2--2--2--2--2--2--2--2--2-|
    E------------------------------------------------------------------------|
    
    
    Guitar…
  • INTRO
      guitar 2
    e |------------|------------|------------|------------|
    B |------------|------------|------------|------------|
    G |------------|------------|------------|------------|
    D |------------|------------|------------|----x-x-x---|
    A…
  • Tuning: EADGBe
    
    Intro/Verse    
    e|-----------------2--------0----------|
    B|--0-------3------------0-----0h1h3---|
    G|------------0-------0----------------|
    D|-----0h4------4--0-------------------|
    A|--------------------------3----------|
    E|--3----------------------------------|
    
    
    Pre…
  • E-----------------------------------------------------------------
    B--3/5/3---1--1---3--3-3-3-3--------------------------------------
    G--x/x/x---x--x---x--x-x-x-x--------------------------------------
    D--5/7/5---3--3---5--5-5-5-5--------------------------------------
    A-----------------------------------------------------------------
    E-----------------------------------------------------------------…
  • Tuning: standard
    
    Intro 
    G|----------------------|
    D|----------------------|
    A|-444------------------|
    E|-----4444-1111-0-1111-| x4
    
    Verse 'I play dead immersed..'
    G|-666-1111------33333--666-1111----------|666-1111------333333-666-1111---------|
    D|----------3333-----------------333333333|---------3333-----------------33331333|
    A|----------------------------------------|--------------------------------------|
    E|----------------------------------------|--------------------------------------|
    
    pre-chorus…
  • Dropped D Tuning 
    
    intro/verse | 
    g]----------------------------------] |[g]--------------] 
    d]-----4p2------2----4---2----2h4p2-] |[d]--------5-----] 
    a]2-22----4h5--5--000-00---000------] |[a]----5---------] x2 
    d]----------------------------------]…
  • Guitar 1: Rhythm Guitar
    Guitar 2: Lead Guitar
    
    Legend:
    ^ = Half Step Bend
    h = Hammer-On
    p = Pull-Off
    
    
    //Intro Part 1:
    Guitar 1
    E|-0-0-0-0-0-0-0-0-----------------0-0-0-0-0-0-0-0-----------------|
    B|-0-0-0-0-0-0-0-0-4-4-4-4-4-4-4-4-0-0-0-0-0-0-0-0-4-4-4-4-4-4-4-4-|
    G|-----------------4-4-4-4-4-4-4-4-----------------4-4-4-4-4-4-4-4-|
    D|-----------------------------------------------------------------|
    A|-----------------------------------------------------------------|
    e|-----------------------------------------------------------------|
    
    //Intro…
  • Intro:
    
    ----0-------------0---------  
    ----0-------------0---------
    ----4-------------1---------
    ----2-------------2---------
    ----0-------------0---------
    ----0-------------0---------
    
    
    Verse: 1
        A9           G#9…
  • (Wait for guitar to play for a measure, bass comes in at about 0:06)
    G-----------------------------------------------------------------|
    D-----------------------------------------------------------------|
    A-5-5-5-5-5-5-5-5-5-5-5-5-5-5-5-5-5-5-5-5-5-5-5-5-5-5-5-5-5-5-5-5-|
    E-----------------------------------------------------------------|
    
    (0:12)…
  • 6x 
    e)--19-----15------------------) 
    B)----19-----15----------------) 
    G)-----------------------------) 
    D)-----------------------------) 
    A)-----------------------------) 
    E)-----------------------------) 
    
    after the second…
  • Intro 
    g-------------------------------| 
    d-------------------------------| 
    a-------------------------------| 
    e-66666666666666666666-xxxxxxxx-| 
    
    Verse 1 
    g------------------------------------ 
    d------------------------------------…
Наверх