Аккорды Tame Impala - Let It Happen

Добавлено: @romashka
Дата добавления: 30 Марта 2024г.
Рейтинг:
0.0
Просмотров: 35
Транспонировать - +
[Intro]:
A  F#m G#sus4    x4

[Verse 1]:0:27
A             F#m                G#sus4
It's always around me, all this noise but
A              F#m       G#sus4
Not nearly as loud as a voice singing
A              F#m          G#sus4
Let it happen, let it happen (It's gonna
feel so good)
A                   F#m          G#sus4
Just let it happen, let it happen

[Chorus]:0:56
D#m       B
All this running around
C#         F#
Trying to cover my shadow
D#m       B
An ocean growing inside
C#           F#
Now all the others seem shallow
D#m       B
All this running around
C#       F#
Bearing down on my shoulders
D#m    B
I can hear an alarm
C#       C#sus4
Must be morning

[Post-Chorus]:1:27
A  F#m G#sus4    x4

[Verse 2]:1:44
A                     F#m
I heard about a whirlwind that's coming
 G#sus4
around
A                     F#m
It's gonna carry off all that isn't
G#sus4
bound, and
A                F#m             G#sus4
When it happens, when it happens (I'll be
holding on)
A                 F#m
So let it happen, let it happen

[Chorus]:2:09
D#m       B
All this running around
C#       F#
I can't fight it much longer
D#m          B
Something's trying to get out
C#        F#
And it's never been closer
D#m    B
If my ticker fails
C#       F#
Make up some other story
D#m       B
But if I never come back
C#       F#
Tell my mother I'm sorry

[Solo]:(this continues until around 4:04, where the synth comes in)
  A                    F#m         G#sus4
e|----------------------------------------
B|-10--------10-12-10-9----9--------9-10-9
G|----------------------11---11-----------
D|----------------------------------------
A|----------------------------------------
E|----------------------------------------

       A                    F#m
------------------------------------------
--------10--------10-12-10-9----9---------
-----------------------------11---11-----9
------------------------------------------
------------------------------------------
------------------------------------------

G#sus4
-----------------|
-----------------|
-----9-8---------|
---------11-9-11*|
-----------------|
-----------------|

*: this note is the first of each
subsequent sentence, so it replaces the
first 10 played on the B-string
   and sometimes he plays a 7 here 
Наверх