Аккорды «Tantric»

Tantric
Группа «Tantric» была сформирована в Луисвилле, штат Кентуки, бывшими участниками коллектива «Days Of The New» в лице Jesse Vest, Todd Whitener и Matt Taul при участии вокалиста Hugo Ferreira, ранее работавшего в составе команды «Merge». В 1999 году музыканты подписали контракт с лэйблом «Maverick Records» и в следующем году записали одноименный дебютный лонгплэй при участии знаменитого продюсера Toby Wright. Релиз альбома состоялся в феврале 2001 года и дебютировал в «Billboard 200» под номером… Читать полностью... Группа «Tantric» была сформирована в Луисвилле, штат Кентуки, бывшими участниками коллектива «Days Of The New» в лице Jesse Vest, Todd Whitener и Matt Taul при участии вокалиста Hugo Ferreira, ранее работавшего в составе команды «Merge». В 1999 году музыканты подписали контракт с лэйблом «Maverick Records» и в следующем году записали одноименный дебютный лонгплэй при участии знаменитого продюсера Toby Wright. Релиз альбома состоялся в феврале 2001 года и дебютировал в «Billboard 200» под номером 193. Позднее, пластинка была удостоена платинового статуса, не без помощи сингла «Breakdown» и туров в компании с «Kid Rock» и «Creed». Последующие синглы «Astouned» и «Mourning», так же пользовались значительным успехом. Второй альбом «After We Go», вновь спродюсированный Toby Wright’ом, был выпущен в феврале 2004 года. Хотя пластинка и дебютировала в «Billboard 200» уже под номером 56 ее успех был все же значительно слабее по отношению к одноименному дебюту. С альбома было выпущено три сингла: «Hey Now», «After We Go» и «The Chain», последний является кавером на одноименную песню группы «Fleetwood Mack». В течении года, музыканты отметились в турах с «3 Doors Down» и «Shinedown». В 2005 году группа «Tantric» объявила об уходе из ее рядов Jesse Vest, на место которого был принят Bruce LaFrance. Большую часть года музыканты провели в работе над очередным альбомом. В январе следующего года команда отправилась в тур с группой «Drowning Pool», в Сеул, Южная Корея. В марте «Tantric» разрывают контракт со своим прежним рекорд-лэйблом «Maverick Records», в связи с чем релиз третьего альбома был отложен на неопределенный срок. Скрыть...
Популярные аккорды Tantric:
алфавиту | просмотрам | случайно
  • Tuning:
    Eb Ab Db F Bb Eb
    
    acoustic 12 string
    electric 6 string
    
    
     Intro:
    e-------0---0-------------------0---------0-----0-
    b---------0-0-------0-------------0---------------
    f-----------0-----0---0---------------------------
    d-----9-----7---7-------0-----2---------5---------
    a---9-------7-7-------------2---------5-------7---
    e-7---------5-------------0---------3-------5-----
    
    
    e-------0---0-------------0-
    b---------0-0-------0-----0-
    f-----------0-----0---0---0-
    d-----9-----7---7-------0-2-
    a---9-------7-7-----------2-
    e-7---------5-------------0-
    
    
    Verse:…
  • Tuning:
    E, Ab, Db, Gb, B, Eb
    
    
     some chords used
    
      F#5  Emaj  G#m   B  F(4)  C#m  D#
    e-------0-----0----0---------1--------
    b--2----0-----0----0---0-----2----4---
    g--0----0-----2----0---0-----2----4---
    d--0----3-----2----2---0-----0----2---
    a--x----3-----0----3---2-----0----x---
    e--2----0-------------------------3---
    
    
    Verse:…
  • Tune down a half step + drop D
    Low To High  - Db Ab Db Gb Bb Eb
    
    Main Riff: (acoustic)
    |-----------------------------------------------------------------------|
    |-----------------------------------------------------------------------|
    |-----2p0---4p0---5p0---4p0---2------2p0---4p0----2p0---4p0----2--------|
    |-----------------------------------------------------------------------|
    |--0------0-----0-----0-----0-------------------------------------------|
    |----------------------------------3-----3------0-----0------0----------|
    
    |-----------------------------------------------------------------------|
    |-----------------------------------------------------------------------|
    |----2p0---4p0---5p0---7p0---9------2p0---4p0----2p0---4p0----2--------|
    |-----------------------------------------------------------------------|
    |--0-----0-----0-----0-----0--------------------------------------------|
    |----------------------------------3-----3------0-----0------0----------|
    
    Chorus:…
  • Drop all strings a half step + drop D
    Low To High - Db Ab Db Gb Bb Eb
    
    Main Riff: (acoustic)
    |--------------------------------------------------------------------|
    |-------------------------------------------------------------3------|
    |--------0--0-------0--0-------0------------------------2p0----------|
    |--0h2--------0h2--------0h2-----------0--0-------0--0------0--------|
    |------0----------0----------0-------3----------3--------------------|
    |--------------------------------0h3--------3h5----------------------|
    
    Chorus:…
  • High Drop Db
    Eb, Ab, Db, Gb, Bb, Db
    
    Verse”
    
    ...your so afraid...
    
    d----------------------2---2-----
    b------------------3-----3-------
    g---------0------4---0-------0---
    d-----2-----2--------------------
    a---2---2-----2------------------
    e-0------------------------------
    
    
    Pre…
  • Tune down a half step:
    Eb Ab Db Gb Bb Eb
    
    
    Some chords used:
    
     Em   A7sus   C9   am   G6  D2
    e-0-----------------0---0---0----
    b-0-----3-----3-----1---3---3----
    g-0-----0-----0-----2---0---2----
    d-2-----2-----x-----2---0---0----
    a-2-----0-----3-----0---2---x----
    e-0---------------------3---2----
    
    
    Intro:…
  • Open Db tuning
    Db, Ab, Db, F, Ab, Db
    
     
    d-6--6-6--7--4---6--6-6--7--4---6--6-6-7-9-7-6--
    a-0--0-0--0--0---0--0-0--0--0---0--0-0-0-0-0-0--
    f-0--0-0--0--0---0--0-0--0--0---0--0-0-0-0-0-0--
    d-----------------------------------------------
    a-----------------------------------------------
    d-----------------------------------------------
    
    
    d---6--6-6--7--4---0--0-0--0--
    a---0--0-0--0--0---0--0-0--0--
    f---0--0-0--0--0---0--0-0--0--
    d-----------------------------
    a-----------------------------
    d-----------------------------
    
    
    d-0--0-0-0----0-0-0-0-0----0-0-0-0-0----0-0-0-0---
    a-0--0-0-0----0-0-0-0-0----0-0-0-0-0----0-0-0-0---
    f-0--0-0-0-x--2-2-2-2-2-x--2-2-2-2-2-x--2-2-2-2---
    d-0--0-0-0-x--0-0-0-0-0-x--0-0-0-0-0-x--0-0-0-0---
    a-0--0-0-0-x--3-3-3-3-3-x--2-2-2-2-2-x--3-3-3-3---
    d-0--0-0-0----------------------------------------
    
    
    d-0--0-0-0----0-0-0-0-0----0-0-0-0-0-------------
    a-0--0-0-0----0-0-0-0-0----0-0-0-0-0-------------
    f-0--0-0-0-x--2-2-2-2-2-x--2-2-2-2-2-------------
    d-0--0-0-0-x--0-0-0-0-0-x--0-0-0-0-0--2/3-3-3-3--
    a-0--0-0-0-x--3-3-3-3-3-x--2-2-2-2-2--2/3-3-3-3--
    d-0--0-0-0----------------------------2/3-3-3-3--
    
    
    Pre…
  • Drop Db
    Db, Ab, Db, Gb, Bb, Eb
    
    Intro:
    
    e--------------------------------------------------
    b--------------------------------------------------
    g--------------------------------------------------
    d---0-------0---0-----------0-------0---0----------
    a-----0---3-------0-----0-----0---3-------0-3b-0---
    d-0-----3-----0-----3-5---0-----3-----0----------3-
    
    
    Verse:…
  • double drop d
    Db Ab Db Gb Bb Db
    
    d--------------------------------
    b--------------------------------
    g-----------0--2-------0---------
    d-----2-4------------0-----4---0-
    a---2-----2--------0-----0---0---
    d-2--------------0---------------
    
    lead…
  • Tuning: E down 1.5 to C#
    	A down .5  to G#
    	D up 1 stp to D#
    	G down .5     F#
    	B down .5     A#		
    	E down .5     D#
    
    
    
    Intro/verse
    D#-----0---0-----0--------5-------
    A#--------------------------------
    F#--------------------------------
    D#-----0---0-----0------0---------
    G#-0-3---5---5-3----5-------------
    C#--------------------5-----------
    
    Prechorus
    D#-----0-----0-----0-----5--------
    A#--------------------------------
    F#--------------------------------
    D#-----0-----0-----0---0----------
    G#-0-3---0-3---0-3----------------
    C#-------------------5------------
    
    Chorus
    D#---------------------*----*-----
    A#-5-------------------*----*-----
    F#-5--5----------------*-11-*-----
    D#-3--5--7----------7--*-9--*-----
    G#-3--3--5--3-3-3-3-5--*-9--*-----
    C#----3--5--3-3-3-3-5--*-9--*-----
    sounds…
  • tune down a half step
    Eb, Ab, Db, Gb, Bb, Eb
    
    
    e--------------------------------------------------------------
    b---------0-------------0---------------0-------------0--------
    g-----7-----7---7---------7---7-----6-----6---6---------6---6--
    d-----------------5-----------------------------5--------------
    a---7---7-----7-----7-------7-----7---7-----7-----7-------7----
    e-0-------------------0---------0-------------------0----------
    
    
    e-------------------
    b-------------------
    g-------------------
    d-----------2-4-5---
    a-------2-5---------
    e-0-3-5-------------
    
    
    Chorus:…
  • Double drop d
    Db Ab Db Gb Bb Db
    
     w/delay
    d--------------------------------------------------------
    b--------------------------------------------------------
    g--------------------------------------------------------
    d-------------------------3~--------------------------3~-
    a-5--3-5--3-5--5--3-5-0-----5--3-5--3-5--5--3-5-0----
    d--------------------------------------------------------…
  • Double Drop Db:
    Db Ab Db Gb Bb Db
    
    
    Fig 1.
    
    D--------------------------------------
    B--------------------------------------
    G--------------------------------------
    D------2~~-----------------------------
    A-2-2-------0-2--x-x-0--2-2-7b---2-3-5-
    D-2-2-------0-2--x-x-0--2-2-7b---2-3-5-
    
    
    Verse:…
Наверх