Аккорды Тараканы! - Жёлтая звезда

Добавлено: @romashka
Дата добавления: 11 Июня 2020г.
Рейтинг:
0.0
Просмотров: 75
Транспонировать - +
Am  F  G  C  E  
 
-------------------------------------------------------------------- 
-------------------------------------------------------------------- 
-4-5-7s9---9s12-10-----4-5-7--7s12-9--7s5-4------------------------ 
7---------7--------5-7-------5------------------------------------- 
-------------------------------------------------------------------- 
-------------------------------------------------------------------- 
                                                                                    
------------------------------ 
------------------------------ 
4-5*--4-5*--4-5*--4-5*-------- 
----7-----7-----7-----7------- 
------------------------------ 
------------------------------ 
 
Куплет 1: 
 
Am    F 
Желтая звезда на моей груди 
C  G 
Ярким горит клеймом. 
Am     F 
Боже сделай так, чтоб глаза закрыть 
C   G 
И всё окажется сном. 
 
Припев: 
 
  Am        F 
Но в этом сне и лай людей, и лай собак, 
           C  G 
И плачь детей, и дым, и пепел в небесах. 
  Am       F 
И страх живых, и тот, кто смог смерть обмануть, 
  C       G 
И спас весь мир, спасая жизнь одну. 
 
------------------------------ 
------------------------------ 
4-5*--4-5*--4-5*--4-5*-------- 
----7-----7-----7-----7------- 
------------------------------ 
------------------------------ 
 
Куплет 2: 
 
Желтая звезда на моей груди - 
Мой смертный приговор. 
Только чудо может меня спасти, 
Щёлкнул уже затвор... 
 
Припев 
 
Проигрыш (как в начале): 
 
-------------------------------------------------------------------- 
-------------------------------------------------------------------- 
-4-5-7s9---9s12-10-----4-5-7--7s12-9--7s5-4------------------------ 
7---------7--------5-7-------5------------------------------------- 
-------------------------------------------------------------------- 
-------------------------------------------------------------------- 
 
Припев 
 
Проигрыш 2: 
------------------------------------------------------------------- 
------------------------------------------------------------------- 
-2--4s5-4-2----5--9-5-4-----4-5--2-5-4-2----9----7----------------- 
-------------------------5----------------------------------------- 
------------------------------------------------------------------- 
------------------------------------------------------------------- 
 
Закончить на аккорде Am. 
_________________________________________________________ 
s - слайд 
* - let ring 
Наверх