Аккорды ТАйМСКВЕР - Мой серый город

Добавлено: @romashka
Дата добавления: 30 Мая 2018г.
Рейтинг:
0.0
Просмотров: 43
Транспонировать - +

Вступление:
E|-----------8-----------------------
B|---------------------------10--8---
G|----10--9-----9-----10--9----------
D|-----------------------------------
A|-----------------------------------
D|-----------------------------------

Аккорды во вступлении:
E|------------------------
B|----6----5----10---8----
G|----5----5----9----7----
D|----3----3----7----5----
A|----3----3----7----5----
D|----3----3----7----5----
      F   F/E   A    G

Куплет:
Аккорды в куплете точно такие же как и во вступлении...
Проиграть по одному разу совместно с "темой вступления + 
бит барабанов"

F   F/E   
Кажется, закончились
A    G
Все былые козыри
F   F/E   
Темы, что ты мог мне дать -
A    G
Раздеты, и спеты давно
F   F/E   
Видимо, расклеился
A    G
Стал до боли розовым ты
F   F/E   
Я убил твою лирику, но
A    G
Я ищу твою молодость

Проигрыш перед припевом:
E|-------------------
B|-------------------
G|----3----5----7----
D|----3----5----7----
A|----1----3----5----
D|-------------------
      A#   C    D

Припев:
E|------------------------
B|----10---6----13---8----
G|----9----5----12---7----
D|----7----3----10---5----
A|----7----3----10---5----
D|----7----3----10---5----
      A    F    C    G

A    F    C    G
Где же ты? Мой вечно серый город
A    F    C    G
У меня пусто внутри 
A    F    C    G
без твоей с*ка суеты
A    F    C    G
Где же ты? Мой самый скверный город
A    F    C    G
Я унес часть твоей дымки
A    F    C    G
Ты унес часть моей смелости

F   F/E   
Может, это правило -
A    G
В силу неизбежности
F   F/E   
Все мы растворяемся
A    G
В частицах своего прошлого
F   F/E   
Словно не хватает тех
A    G
Дыма и беспечности
F   F/E   
Что мешают нам навеки застрять
A    G
В этой розовой коме. но

A    F    C    G
Где же ты? Мой вечно серый город
A    F    C    G
У меня пусто внутри 
A    F    C    G
без твоей с*ка суеты
A    F    C    G
Где же ты? Мой самый скверный город
A    F    C    G
Я унес часть твоей дымки
A    F    C    G
Ты унес часть моей смелости

F   F/E   
Ты и я были связаны
A    G
Той особой матрицей
F   F/E   
Что осталась в памяти
A    G
Мириадой снов
F   F/E   
Ты и я были братьями
A    G
Не по крови, а по душе
F   F/E   
Но теперь ты погас во мне
A    G
Светлый город мой

A    F    C    G
Где же ты? Мой вечно серый город
A    F    C    G
У меня пусто внутри 
A    F    C    G
без твоей с*ка суеты
A    F    C    G
Где же ты? Мой самый скверный город
A  F  C  G
Где же ты

Подбор сделан для строя гитары Drop D(DADgbe);
Советую не ставить безымянный палец на первый удар по аккордам во вступлении.
comments powered by Disqus
Наверх