Аккорды Teen Suicide - Everything Is Fine

Добавлено: @romashka
Дата добавления: 02 Июня 2018г.
Рейтинг:
0.0
Просмотров: 26
Транспонировать - +
Intro: G Bm }x4

G      Bm             G
i made friends with a ghost 
G       Bm               G
we hang out almost every night 
G        Bm          G
when i’m lying in my bed 
   C        Bm    G
he creeps into my head 
C        Bm      G
he fills me with dread 
    D
and everything is fine 

e|-------------------------------------------------|
B|--------0-----------3-----------7----8----7----3-|
G|-------------------------------------------------|
D|-------------------------------------------------| x3
A|-------------------------------------------------|  
E|-------------------------------------------------|

e|-------------------------------------------------|
B|--------0----3----7----8----7----3----7----3-----|
G|-------------------------------------------------|
D|-------------------------------------------------|
A|-------------------------------------------------|
E|-------------------------------------------------|

G      Bm             G
i made friends with a creep 
G           Bm            G
he sticks a needle in his arm 
G        Bm          G
when i’m lying in my bed 
         C     Bm     G
he stole everything i had 
        C       Bm     G
i still let him hang around 
      D
cause everything is fine

Outro:
e|--------------------------------------------------|
B|--------0-----------3-----------7----8----7----3--|
G|--------------------------------------------------|
D|--------------------------------------------------| x3
A|--------------------------------------------------|  
E|--------------------------------------------------|

e|--------------------------------------------------|
B|--------0----3----7----8----7----3----7----3------|
G|--------------------------------------------------|
D|--------------------------------------------------|
A|--------------------------------------------------|
E|--------------------------------------------------|
comments powered by Disqus
Наверх