Аккорды The Acid - Basic Instinct

Добавлено: @romashka
Дата добавления: 04 Января 2017г.
Рейтинг:
0.0
Просмотров: 150
Транспонировать - +
--------3---3-|--------------|-- 
--------------|-------0---0--|-- 
--------------|--------------|-- 
-2-2-2----2---|--------------|-- 
--------------|-2-2-2---2----|-- 
--------------|--------------|-- 
 
--------------|--------------|-- 
-------0---0--|-------0---0--|-- 
--------------|--------------|-- 
--------------|--------------|-- 
-0-0-0---0----|--------------|-- 
--------------|-3-3-3---3----|-- 
 
 Em        G6  A5 G6  
Tender we fall 
Quiet and alone 
Tired and gone, just speechless 
Speechless 
Tired and gone 
Coming up for air 
Coming up for air air 
Coming up for air 
Coming up for air air 
Coming up for air 
Coming up for air 
 
Push me back in 
Silent in sin 
Fight in water 
want it, want it 
Basic instinct 
 
I'm tired, I don't want it 
I'm tired, I don't want it 
I'm tired, I don't want it 
I'm tired, I don't want 
I'm tired, I don't want it 
Tired, I don't want 
Coming up for air 
Coming up for air air 
Coming up for air 
Coming up for air air 
Coming up for air 
Coming up for air air 
Coming up for air 
Coming up for air air 
Coming up for air 
Coming up for air air 
Air (continued)
comments powered by Disqus
Наверх