Аккорды «The Clash»

The Clash
КЛЭШ (Clash), английская панк-рок-группа. Образована в 1976 в Лондоне. Одни из пионеров данного музыкального направления. В панк-роке CLASH тесно переплетались хард-рок, реггей и рокабилли. Первоначальный состав: Джо Страммер (Joe Strummer) (настоящее имя Джон Грэм Меллор, John Graham Mellor) (21 августа 1952, Анкара, Турция — 22 декабря 2002, Брумфилд, Сомерсет) (гитара, вокал); Мик Джонс (Mick Jones) (полное имя Майкл Джоффри Джонс, Michael Geoffrey Jones) (р. 26 июня, 1955, Лондон) (гитара, вокал);… Читать полностью... КЛЭШ (Clash), английская панк-рок-группа. Образована в 1976 в Лондоне. Одни из пионеров данного музыкального направления. В панк-роке CLASH тесно переплетались хард-рок, реггей и рокабилли. Первоначальный состав: Джо Страммер (Joe Strummer) (настоящее имя Джон Грэм Меллор, John Graham Mellor) (21 августа 1952, Анкара, Турция — 22 декабря 2002, Брумфилд, Сомерсет) (гитара, вокал); Мик Джонс (Mick Jones) (полное имя Майкл Джоффри Джонс, Michael Geoffrey Jones) (р. 26 июня, 1955, Лондон) (гитара, вокал); Пол Саймонон (Paul Simonon) (р. 15 декабря 1956, Лондон) (бас-гитара); «Топпер» Хидон («Topper» Headon) (настоящее имя Николас Боуэн Хидон, Nicholas Bowen Headon) (р. 30 мая 1955, Бромли, Кент) (ударные). Почти все участники группы, которая все время пела о революции и рабочем классе, происходили из самых умеренных слоев британского общества, но поголовно были влюблены в рок-н-ролл. Джо Страммер, когда ему едва перевалило за 20, организовал группу 101"ERS, а Мик Джонс возглавлял хард-рок-коллектив LONDON SS, подражавший популярным тогда MOTT THE HOOPLE и FACES. Они-то и основали CLASH. Чуть позже к ним присоединился школьный друг Джонса Пол Саймонон, решивший играть рок после прослушивания SEX PISTOLS. Он заменил Тони Джеймса, недолго побывшего в CLASH на своем пути в GENERATION X и SIGUE SIGUE SPUTNIK. Барабанщик Хидон сначала также не задержался в основном составе, и его заменил Тори Чаймс (Tory Crimes) (настоящее имя Терри Чаймс, Terry Chimes). На решение Страммера покинуть свою первую группу и играть более энергичную музыку также повлияли SEX PISTOLS. Уходя к Джонсу в LONDON SS, он прихватил с собой гитариста Кита Ливена (Keith Levene). Тогда же группу переименовали в CLASH. Первый концерт новой группы состоялся летом 1976 (на нем CLASH поддерживала SEX PISTOLS). Вскоре из группы ушел Ливен. Тем временем CLASH обзавелись менеджером (им стал помощник продюсера все тех же SEX PISTOLS Бернард Родс). С его помощью CLASH отправились вместе с SEX PISTOLS в знаменитое «анархическое турне» (конец 1976). И хотя тур состоял всего из трех концертов, он получил такую огласку, что с CLASH немедленно подписали контракт в британском отделении CBS. Дебютный альбом был записан всего за несколько выходных. Сразу после окончания студийной работы группу покинул Чаймс, и в CLASH снова вернулся Хидон. Дебютный сингл White Riot и альбом «Clash» встретили широчайшее признание, сразу же взлетев на 12-ое место чартов. Тем временем американское отделение компании решило пока не выпускать альбом в США, а ограничиться лишь радиотрансляциями и импортом альбома из Англии. Тем не менее, этот ограниченный «импорт» стал самым продаваемым за всю историю американской поп-индустрии. Вскоре после выхода альбома на родине музыкантов был устроен грандиозный концерт на престижнейшей площадке London"s Rainbow Theatre вместе с JAM и BUZZCOCKS (чуть ли не все кресла были выдраны из пола «с мясом»). Весь 1977 Страммер и Джонс бесчисленное количество раз попадали в полицию за мелкие правонарушения — от вандализма до кражи подушек, — а Саймонон и Хидон арестовывались за стрельбу по пролетающим мимо голубям из духового ружья. Все это способствовало установлению стандартного панковского имиджа группы, но ее музыканты уже начинали вовлекаться в социально-общественную деятельность — например, дали концерт «Рок против расизма». Сингл (White Man) In Hammersmith Palais, вышедший в 1978, ярко показывал растущую социальную сознательность CLASH. Вскоре после этого группа приступила к работе над своим вторым альбомом под руководством нового продюсера Сэнди Перлмена (Sandy Pearlman), экс-участника BLUE OYSTER CULT. Перлмен придал альбому «Give "Em Enough Rope» чистый, но мощный саунд, рассчитывая пробиться на американский рынок. Этого правда, не случилось, но в Великобритании альбом стал суперхитом, достигнув весной 1979 второго места в хит-параде. В начале 1979 CLASH отправились в свое первое американское турне, называвшееся «Pearl Harbor "79», а летом — в еще одно. Во время этих выступлений группа делила сцену с такими легендами американского ритм-н-блюза, как Бо Диддли (Bo Diddley), SAM & DAVE, Ли Дорси (Lee Dorsey), Скриминг Джей Хокинс (Screamin" Jay Hawkins); а также кантри-рокер Джо Элай (Joe Ely) и панк-рокабильщики CRAMPS. Это был стратегически верный ход: отныне CLASH стали ненавязчиво ассоциироваться у американцев с их «рутовой» музыкой. Тут же подоспел и новый альбом группы «London Calling». Его материал уже не был чисто панковым: высок был удельный вес рокабилли, новоорлеанского ритм-н-блюза, хард-рока и регги. Продаваемый по цене сингла, альбом вскоре достиг 9-го места в хит-параде Великобритании и 27-го — в США. Это был настоящий успех. Весь 1980 CLASH активно выступали в Америке, Англии и континентальной Европе, выпустив ряд удачных записей. Особенно стоит отметить сингл Sandinista!, который впервые получил большее признание в США, чем на родине музыкантов. В 1981 CLASH выпустили свой пятый альбом, который был спродюсирован Глинном Джонсом, ранее работавшим с ROLLING STONES, WHO и LED ZEPPELIN. Сразу же после записи альбома произошла обратная рокировка барабанщиков: Хидона снова заменил Чаймс. Альбому «Combat Rock» было суждено стать самым коммерчески успешным альбомом CLASH — он достиг второго места в чартах Великобритании и вошел в Top Ten США (особенно популярной стала песня Rock the Casbah). На самом гребне своего успеха группа начала распадаться. Сначала был уволен Чаймс (его заменил Пит Ховард, Pete Howard), бывший участник COLD FISH. Летом 1983 группа выступила на фестивале в Калифорнии — и это было последним значимым явлением CLASH народу. В сентябре Страммер и Саймонон выгнали из группы Джонса за его «отход от первоначальной концепции группы». Позже Джонс основал BIG AUDIO DYNAMITE, а в CLASH пришли гитаристы Винс Уайт (Vince White) и Ник Шеппард (Nick Sheppard). Весь 1984 группа разъезжала с концертами, а затем выпустила альбом «Cut the Crap», который ожидал ошеломляющий провал. В начале 1986 Страммер и Саймонон приняли решение об окончательном роспуске CLASH. Саймонон еще недолго занимался музыкой, после чего неожиданно увлекся живописью. Страммер ненадолго воссоединился с Джонсом, а затем подался в кинобизнес, снявшись в фильмах Алекса Кокса «Straight to Hell» (1986) и Джима Джармуша «Mystery Train» (1989). Он также появлялся в кинолентах «Permanent Record» (1988) and «Walker» (1987). В 1989 он выпустил сольный альбом «Earthquake Weather». Сразу после этого Страммер присоединился к группе POGUES в качестве «гастрольного» гитариста и вокалиста. Все остальное время музыкант был практически незаметен — впрочем, как и остальные участники CLASH. И хотя до сих пор ходит множество слухов о готовящемся воссоединении легендарного коллектива, все они имеют под собой мало оснований. Дискография: CLASH (1977) GIVE "EM ENOUGH ROPE (1978) LONDON CALLING (1979) RETURN TO BRIXTON (1979, EP) BLACK MARKET CLASH (1980) SANDINISTA! (1980) COMBAT ROCK (1982) CUT THE CRAP (1985) THE STORY OF THE CLASH, VOLUME 1 (1988) CRUCIAL MUSIC — THE CLASH COLLECTION (1989) CRUCIAL MUSIC — 1977 REVISITED (1990) CLASH ON BROADWAY (1991, BOX) SUPER BLACK MARKET CLASH (1993) HOLY SOUL JELLY ROLL. POEMS AND SONGS 1949-1993 (1994) Скрыть...
Популярные аккорды The Clash:
алфавиту | просмотрам | случайно
  • [A] Intro (0:00)
    
       Em              Fadd#11/E
    E|-7---7---7---7-|-7----7----7----7--|-7---7---7---7-|-7----7----7----7--|
    B|-8---8---8---8-|-10---10---10---10-|-9---9---9---9-|-10---10---10---10-|
    G|-9---9---9---9-|-10---10---10---10-|-8---8---8---8-|-10---10---10---10-|
    D|-9---9---9---9-|-10---10---10---10-|-8---8---8---8-|-10---10---10---10-|
    A|-7---7---7---7-|-7----7----7----7--|-7---7---7---7-|-7----7----7----7--|
    E|---------------|-------------------|---------------|-------------------|
    
    
    E|-7---7---7---7-|-7----7----7----7--|-7---7---7---7-|-7----7----7----7--|
    B|-8---8---8---8-|-10---10---10---10-|-9---9---9---9-|-10---10---10---10-|
    G|-9---9---9---9-|-10---10---10---10-|-8---8---8---8-|-10---10---10---10-|
    D|-9---9---9---9-|-10---10---10---10-|-8---8---8---8-|-10---10---10---10-|
    A|-7---7---7---7-|-7----7----7----7--|-7---7---7---7-|-7----7----7----7--|
    E|---------------|-------------------|---------------|-------------------|
    
    
    E|-7---7---7---7-|-7----7----7----7--|-7---7---7---7-|-7----7----7----7--|
    B|-8---8---8---8-|-10---10---10---10-|-9---9---9---9-|-10---10---10---10-|
    G|-9---9---9---9-|-10---10---10---10-|-8---8---8---8-|-10---10---10---10-|
    D|-9---9---9---9-|-10---10---10---10-|-8---8---8---8-|-10---10---10---10-|
    A|-7---7---7---7-|-7----7----7----7--|-7---7---7---7-|-7----7----7----7--|
    E|---------------|-------------------|---------------|-------------------|
    
    
    [B]…
  • |-------------------|
    |-------------------|
    |-------------------|
    |-------------------|  Intro Riff (repeat as many times as needed)
    |---7---7----7---7--|
    |--5---5-5--5---5-5-|
    
    
    D A A D A A 
    You say you stand by your man…
  • w   w   w   w   e q e e e e e   e e+H   e q e e e e e   e e+H
    G:------|---|---|---|---------------|-------|---------------|-------|
    D:-4:---|---|---|---|---------------|-------|---------------|-------|
    A:-4:-R-|-R-|-R-|-R-|-R-5-5-----2-3-|-5-R---|-R-5-5-----2-3-|-5-R---|
    E:------|---|---|---|-------3-3-----|-------|-------3-3-----|-------|…
  • Guitar
    ---------------------------------------------|
    ---------------------------------------------|
    ---------------------------------------------|
    ----0----2-0---0-----------------------------|
    -------------3----------------2---3-2-0-2----|
    3--------------------------3-----------------|
    
    bass
    ------------------------------------------------|
    ------------------------------------------------|
    ---5-5-5-5-5----5-5-5--------5-5-5-5-5-0--------|
    3-------------3------------3--------------3-----|
    
    
    Guitar
    ---------------------------------------------------|
    ---------------------------------------------------|
    ---------------------------------------------------|
    -----0---2-0---0--------------0--------------------|
    -------------3-------------3-----------------------|
    3--------------------------------3--3-3-3-3--------|
    
    bass
    ----------------------------------------------------|
    -------------------------------0--------------------|
    ---5-5-5-5-5----5-5-5-5-5---3-----------------------|
    3-------------3-------------------3-3-3-3-3---------|
    
    
    G…
  • INTRO & RIT
    ---------|    |---------
    ---------|    |---------
    ---5---5-|(X3)|55-/-7---
    555--5---|    |-------5-
          
                                                                              
    BRIDGE
    ---2--(2)--2-2-----
    -2---2---2-----2---
    -------------------
    -------------------
    
    
    BRIDGE…
  • Intro/Chorus
    
    e|---------------------------------------------------------------------------
    B|---------------------------------------------------------------------------
    G|---------------------9---9---9---9-----------------------------------------
    D|----7---7---7---7----9---9---9---9-----5---5---5---5-----7---7---7---7-----
    A|----7---7---7---7----7---7---7---7-----5---5---5---5-----7---7---7---7-----
    E|----5---5---5---5----------------------3---3---3---3-----5---5---5---5-----…
  • Chords:
    E--0----0----2-----2---|
    B--2----0----2-----3---|
    G--2----1----2-----2---|
    D--2----2----4-----0---|
    A--0----2----4---------|
    E------------2---------|
       A    E    F#m   D
    The chord progression throughout the whole…
  • Intro
    ===== 
         q ^e e^e^e q   q [x3] w                 w                w             [x4]
    G-||-------------------||----------------||-----------------|----------------||
    D-||*-------4-2-------*||----------------||*----------------|---------------*||
    A-||*-----------3---5-*||----------------||*-R--------------|-R-------------*||
    E-||-3--3-3------------||--3-------------||-----------------|----------------||…
  • (X4)
    E---------------------------------------------------------
    B---------------------------------------------------------
    G---------------------------------------------------------
    D------------------------------------9---9----------------
    A-----------------7---7-----------------------------------
    E-------0---0---------------0---0-------------------------
    
    
    E---------------------------------------------------------
    B-------9---9-----7---9---7----9---7----9----9---9---9----
    G-------9---9-----7---9---7----9---7----9----9---9---9----
    D-------9---9-----7---9---7----9---7----9----9---9---9----
    A-------7---7-----7---7---7----7---7----7----7---7---7----
    E-------7---7--------------------7---7----7---------------
    
    
    E------12-----10-----12-----10---/--12--------------
    B------12-----10-----12-----10---/--12--------------
    G------13-----11-----13-----11---/--13--------------
    D------14-----12-----14-----12---/--14--------------
    A---------------------------------------------------
    E---------------------------------------------------
    
    
    E------------5---5--------5----------5---------------
    B------------5------5---5---5----------5-------------
    G------------6--------6--------6^7------7^6----------
    D------------7-----------------------------------7---
    A----------------------------------------------------
    E----------------------------------------------------
    
    Chorus…
  • Chords:
    
     B5  F#  D5 E5 F#5  G5 A5 B5 D5 E5 G5*
    -------------------------------------------
    -------------------------------------------
    -4---11--7-------------------7--9--12------
    -4---11--7--2--4----5--7--9--7--9--12------
    -2---9---5--2--4----5--7--9--5--7--10------
    ------------0--2----3--5--7----------------
    
    Riff…
  • Chorus
    g-----------------------------------
    d-----------------------------------
    a-----------------------------------
    e-222222222222222222-------------etc
    
    
    Verse
    g-----------------------------
    d-----------------------------
    a-2222222222222222------------
    e-----------------------------
    
    
    Bridge
    g-----------------------------------------------
    d-----------------------------------------------
    a-7-6-5-3-77-6-5-3-7-6-5-3-77-6-5-3-------------
    e-----------------------------------------------
    
    
    Verse…
  • Intro: Just these chords: D - - - - - - - - - - - A G - - - - - - -
    
    D     A    G
    5-----5----3-------------------------------------------------------------|
    7-----5----3-------------------------------------------------------------|
    7-----6----4-------------------------------------------------------------|
    7-----7----5-------------------------------------------------------------|
    5-----7----5-------------------------------------------------------------|
    ------5----3-------------------------------------------------------------|
    
    Play…
  • RIFF
    
    ----------------------------------------9-10-7---------|
    -7-7-7-7--7--7-10-7---------7-7-7-7--7---------10-7----|
    --------------------9-7--------------------------------|
    -------------------------------------------------------|
    -------------------------------------------------------|
    -------------------------------------------------------|
    
    
    ----------------------------------------10-9---7-------|
    -7-7-7-7--7--7-10-7---------7-7-7-7--7-------10--10--7-|
    --------------------9-7--------------------------------|
    -------------------------------------------------------|
    -------------------------------------------------------|
    -------------------------------------------------------|
    
    
    CHORDS:…
  • The intro is mostly guitar with a bit of bass...
    
    G-------------------
    D-------------------
    A-3-------3---------
    E---5-5-5-----------
    
    The rest of the song is this line, repeated tons of times:
    G-----------------------------------------------------------
    D-----------------------------------------------------------
    A--3------------------3------------------3------------------
    E----5-5-5-5-5-5-3-5----5-5-5-5-5-5-3-5----5-5-5-5-5-5-3-5--
    
    G----------------------------------------------------------
    D----------------------------------------------------------
    A----------------------------------------------------------
    E-5--1-1-1-1-1-1-0-1---------------------------------------…
  • Chords:
    
    A5  (577xxx)  C#m  (x4665x)
    B5  (799xxx)  G#   (466xxx)
    G5  (355xxx)
    E2  (x799xx)
    E5  (022xxx)
    
    
    Intro/Verse:
    
    E|---------------------------------------------------|
    B|---------------------------------------------------|
    G|-9--7-7-------------------9-9----------------------|
    D|-9--7-7-7--5-5--9--7-7--9-9-9----------------------|
    A|-7--5-5-7--5-5--9--7-7--9-7-7----------------------|
    E|--------5--3-3--7--5-5--7--------------------------|
    
    
    Chorus:…
  • Introuction:
    ---------------------------------------------------------------------------------------------------------------------------|
    -----------------------------------------------------------------------------------------------------------10h--9----9-----|
    --9--9------9--------9------------------------------------9----9-----9-------9-------9---------9----9----------9--------9--|
    --9--9------7--------9----------------------9------------9----9-----9-------9-------9---------9----9----------9--------9---|
    --7--7------7--------7-------7--11h7----7------------7----7-----7-------7-------7---------7----7----------7--------7-------|
    ---------------------------------------------------------------------------------------------------------------------------|
    
    verse:They…
  • Verse/Intro:
    G*----------------*----------------*----------------*
    D*------2---------*------2---------*------2---------*
    A*0-004-----0-0---*0-004-------0---*0-004-----------*
    E*----------------*----------1-----*----------2-2---*
    
    G*----------------*----------------*
    D*----2-4-----2---*----2-4---------*
    A*0-4-----0-4---4-*0-4-------0-----*
    E*----------------*------------1---*
    
    
    Chorus:
    G*----------------*----------------*
    D*--------2-------*4---------------*
    A*0---------------*----------------*
    E*----------------*----------------*…
  • E
    (Drum roll)  (four times)
    A       C#m  D                  A        E
    TOMMY GUN – HE AIN'T HAPPY LESS HE GOT ONE
    A       C#m  D                   
    TOMMY GUN – HE AIN’T GONNA SHOOT THE PLACE UP
    A        
    JUST FOR FUN…
  • Intro
    G---||---------------------------------------------|
    D---||*--------------------------------------------|
    A---||*--------------------------------------------|
    E---||---3-3---3-3---3-3---3-3---3-3---3-3---3-3---|
    
    We…
  • Intro:
       only bass         drums+guitars
        4x                4x            
    G|-|-----------------|-----------------|
    D|4|-----------------|-----------------|
    A|4|---------0-0-1-0-|---------0-0-1-0-|
    E|-|-0-0-3-3---------|-0-0-3-3---------|
    
    
    Verse:…
  • chords
    
    Bm       F#m7
    2--------2---------------------------------------|
    3--------2---------------------------------------|
    4--------2---------------------------------------|
    4--------2---------------------------------------|
    3--------4---------------------------------------|
    ---------2---------------------------------------|
    
    Intro…
  • (Intro) 
    B F#/B F# /F 
    
    
    B C F# 
    Do 
    B F#/B F# /F 
    Wah 
    B F#/Bb C# F# 
    Oh 
    B F#/Bb 
    Hanging about down the market street 
    F# 
    I spent a lot of time on my feet 
    B F#/Bb 
    When I saw some passing yabbos 
    B C# F# 
    We did chance…
  • PART 1:
    G|-----------------------------------------|
    D|-----------------------------------------|
    A|---5-9-9-9-9-9-5------5-9-9-9-9-9-5------|
    E|-7---------------7--7---------------7----|
    
    G|-----------------------------------------|
    D|-----------------------------------------|
    A|---5-----------5------5-----------5------|
    E|-7---3-3-3-3-3---7--7---3-3-3-3-3---7----|
    
    PART…
  • A7                                 Em7
    Now, the king told the boogie men,
                G7                  Dm7
    --More--(4%)
    you have to let that raga drop.
        A7                        Em7
    The oil down the desert way…
  • |-------10-10-10-10--8-8--5-5-8------------------| x2
    |------------------------------------------------|
    |------------------------------------------------|
    |------------------------------------------------|
    |------------------------------------------------|
    |------------------------------------------------|
    
    
    |-------10-10-10-10--8-8--5-5-8------------------|
    |-------10-10-10-10--8-8--5-5-8------------------|
    |-------10-10-10-10--8-8--5-5-8------------------|…
  • Intro:
    e|--5---4---4---2---4/55-4/55-5-3/44-3/44-4--4---2--|
    B|--5---5---5---4---4/55-4/55-5-4/55-4/55-5--5---4--|
    G|--6---4---6---4---5/66-5/66-6-3/44-3/44-4--6---4--|
    D|--7---6---6---4---6/77-6/77-7-5/66-5/66-6--6---4--|
    A|--------------------------------------------------|
    E|--------------------------------------------------|
    
    
    Intro…
  • Intro
    
    G-/--------------------------------------------------|
    D-/---9---------6---------------------9--------------|
    A-/-----7---------4---------6-7-0-------7---10-11-12-|
    E-/--------------------------------------------------|
    
    Play…
  • Tuning:standard e
    
    	This is how i play it, and turn up the treble for The Clash sound
    	this is the intro part
    e|---------------------------------------------------------------------------|
    B|---------------------------------------------------------------------------|
    G|-12/14-14--12/14-14--12/14-14--12/14-14--12/14-14--12/14-14--14-12-11------|
    D|----------------------------------------------------------------------12---|
    A|---------------------------------------------------------------------------|
    E|---------------------------------------------------------------------------|twice
    	while…
  • F#m   Bm     G
    e----2-----2-----3-----
    b----2-----3-----0-----
    g----2-----4-----0-----
    d----4-----4-----0-----
    a----4-----2-----2-----
    E----2-----------3-----
    
    
    F#m Bm  F#m Bm  G Bm  G Bm
    
    
              F#m                Bm…
  • C  G   F   (organ)
    
    
    C              F            C
    They cried the tears, they shed the fears
    F       C       F    G
    Up and down the land
         C         F       C
    They stole guitars or used guitars
            F         C…
  • Opening Riff
    (Play many times)
    E--------------------
    G--------------------
    D------2-------------
    A------0-------------
    E--------------------
    
    E----------------------------------------------------------| |     |     |
    G----------2-----2-----------2---------2----2--------------|…
  • Part 1
    G:---------------------------------------------------------------
    D:-------------------6-9-----9-6---------------------------------
    A:----4-7----4-7--7-------7--------------------------------------
    E:-5------5------------------------------------------------------
    
    Part…
  • Chorus
    G-----------------------------------------------------------------------
    D------4--2--4-----4--2--4-----6--4--6-----6--4--6-----------------4----
    A---2-----------2-----------4-----------4-----------------2--2--2-------
    E-----------------------------------------------------------------------…
  • Guitar Intro then:
    
    Verse:
      'Friday or Saturday, what does that mean...
    G---------------------------------------------- (x2)
    D----------------------------------------------
    A--7~------------------9~----------------------
    E----------------------------------------------…
  • Intro:
    G-----------------------
    D-----------------75----			  
    A ---5-----5---0------5-  	
    E 5-----5---------------				
    
    Main Riff
    G---------------------------------------------
    D--------------------------------------75-----
    A-----0-55-0-5-0-55-0-5-0-55-0-5----0-----5---…
  • Chords:   It sounds like there are two guitars and they
              mix up the fingering from lower to higher.  Here are
              the two positions where they alternate.
    
      E     C#m    A    F#m    B
    -4-0-----4----5-0----5-2---2-------------------------|
    -5-0-----5----5-2----7-2---4-------------------------|
    -4-1-----6----6-2----6-2---4-------------------------|
    -6-2-----6----7-2------4---4-------------------------|
    ---2-----4----7-0------4---2-------------------------|
    ---0----------5--------2-----------------------------|
    
    
    Intro:…
  • Intro
    D:|-----------|------------------
    G:|-----------|------------------
    A:|-------7---|------------------
    E:|-0-3-7---8-|-888753-----------
    
    
    Main riff 
    D:|------------------------|------------------------|
    G:|------------------------|------------------------|
    A:|-------7-755557---------|-------7-755557---------|
    E:|-0-3-7------------------|-0-3-7------------------|
    
    D:|------------------------|------------------------|
    G:|------------------------|------------------------|
    A:|-------7-755557---------|-------7-755557---------|
    E:|-0-3-7------------------|-0-3-7------------------|
    
    D:|------------------------|------------------------|
    G:|------------------------|------------------------|
    A:|-------7-755557---------|-------7-755557---------|
    E:|-0-3-7------------------|-0-3-7------------------|
    
    D:|------------------------|------------------------|
    G:|------------------------|------------------------|
    A:|-------7-755557---------|-------7-755557---------|
    E:|-0-3-7------------------|-0-3-7------------------|
    repeat…
  • e|---------------------------------------------| 
    B|-------------5454545---54545-----------------| 
    G|-------54545-----------------54545-5-4-2-5---| 
    D|-54545---------------------------------------| 
    A|---------------------------------------------|…
  • Intro - (Riff 1)
     ||        |                           
    F||:G G F F|E E  F  X2
     ||        | 
    
    
    Verse
     ||       | 
    4|| Riff 1| X4 
    4||       |   
    
    
    Chorus
     ||        |                ||                              
    4||:G5…
  • Intro: organ
    e|-------------------------------------------------------------------------------------------|
    B|----8-8-8-8-8-8-8----------8-8-8-8-8-8-8-----------8-8-8-8-8-10-8------8-8-8-8-8-8-8-------|
    G|--9---------------9-7----9---------------9-------9-------------------9---------------9-----|
    D|-------------------------------------------10------------------------------------------10--|
    A|-------------------------------------------------------------------------------------------|
    E|-------------------------------------------------------------------------------------------|
    
    e|----|--------------------------------------------------x2|
    B|----|----------------------------------------------------|
    G|-44-|-5-x-5-x-55-x-4-x-4-x-44-x-5-x-5-x-55-x-7-x-7-x-77--|
    D|-44-|-5-x-5-x-55-x-5-x-5-x-55-x-3-x-3-x-33-x-7-x-7-x-77--|
    A|-22-|-3-x-3-x-33-x-2-x-2-x-22-x---x---x----x-5-x-5-x-55--|
    E|----|----------------------------------------------------|
    
    Verse:
    e|----------------------------------------------------|
    B|----------------------------------------------------|
    G|-5-x-5-x-55-x-5-x-5-x-55-x-2-x-2-x-22-x-2-x-2-x-22--|
    D|-5-x-5-x-55-x-5-x-5-x-55-x-2-x-2-x-22-x-2-x-2-x-22--|
    A|-3-x-3-x-33-x-3-x-3-x-33-x-0-x-0-x-00-x-0-x-0-x-00--|
    E|----------------------------------------------------|
    
    e|----------------------------------------------------|
    B|----------------------------------------------------|
    G|-5-x-5-x-55-x-5-x-5-x-55-x---x---x----x---x---x-----|
    D|-5-x-5-x-55-x-5-x-5-x-55-x-5-x-5-x-55-x-5-x-5-x-55--|
    A|-3-x-3-x-33-x-3-x-3-x-33-x-5-x-5-x-55-x-5-x-5-x-55--|
    E|---------------------------3---3---33---3---3---33--|
    
    Chorus:
    e|-------------0---x4|---------------------------2--0---------------|
    B|---1--1---11-0-1---|---------------------------3--1---------------|
    G|---0--0---22---2---|--5-x-5-x-55-x-5-x-5-x-55--4--2---------------|
    D|---2--2---22---2---|--5-x-5-x-55-x-5-x-5-x-55--4--2-----22-33-44--|
    A|--3--2--0----------|--3-x-3-x-33-x-3-x-3-x-33--2--0--55-00-11-22--|
    E|-------------------|---------------------------------33-----------|
    
    Verse
    Chorus
    
    Solo:
    B|--8-88-88--88-----8/5-5---5-5---8-88-88--88------8/3-----3----------8--|
    G|--8-55-88--88--55-8/5-22--5-22--8-55-88--88--55--8/4-00--4--00---------|
    
    Chorus
    Verse
    
    Chorus:
    e|-------------0---x10|-----|
    B|---1--1---11-0-1----|-----|
    G|---0--0---22---2----|---5-|
    D|---2--2---22---2----|-5-5-|
    A|--3--2--0-----------|-5-3-|
    E|--------------------|-3---|
    
    END…
  • Intro:
    -2-0----------------------------------------------------------------
    -----2-0------------------------------------------------------------
    ---------3-0---0----------------------------------------------------
    -------------3------------------------------------------------------
    
    
    Everything…
  • (solo bass)
    G---------------------------------------------------------------------------
    D-------------------------------------------------14-14-14---------14-14-14-
    A---------------------------------------------------------------------------
    E--0^5-0--5-5--5-7-7--7-9-9--9-10-10-10^12-12-12-----------12-12-12---------
    
    (drums…
  • -------------|---------------|-------------|-----------------
    -------------|---------------|-------------|-----------------
    -5-5-5-050---|-3-3-3-030-----|-------------|-----------------
    -------------|---------------|-------------|-----------------
    
    I've…
  • Tune down 1/2 step
    
    
    Verses
    
    G --------------------------------------
    D -3----------------0-3-----2-5---------
    A ----------1-3--11------33-------------
    E ---1-1111-----------------------------
    
    Chorus
    
    G --------------------------------------
    D…
  • INTRO 
    	                     repeat 4 times        What are we gonna do...
    G-|----------------------------------------|---|---|-------------|
    D-|---------------------------------------*|--*|--*|-------------|
    A-|---------------------------------------*|--*|--*|-5555-5-7----|
    E-|-/55555555-444444444—22222222-00000000--|---|---|----------5--|…
  • Verse - 
     G| -----------------|-----------------|------7-------9--|
     D| -----------------|-----------------|----7-------9----|
     A| -3-3-3-3-0-------|-3-3-3-3-0-0-----|--5-------7------|
     E| -----------------|-----------------|-----------------|…
  • standard tuning (E,A,D,G)
    
    
    Intro
    
    G|--------------------------------|
    D|--------------------------------|
    A|--------------------------------|
    E|3-3-3-3-3--------3-3-3-3-3/-----|
    
      London's burning..London's burning....
    
    Chorus
    
    G|-------------------------------|
    D|-------------------------------|
    A|--------3-3-5/----------3-3-5/-|
    E|3-3-1-1---------3-3-1-1--------|
    
    This…
Наверх