Аккорды The Cranberries - Waltzing Back

Добавлено: @romashka
Дата добавления: 23 Июля 2014г.
Рейтинг:
0.0
Просмотров: 402
Транспонировать - +
Intro--Em G C Am

Here's the little part played over the chords--Listen to the
track, as I don't think I show timing too well!

-7-5-----9-----|--------------------------------------------------------------
-----8-----9---|--------------------------------------------------------------
---------------|--------------------------------------------------------------
---------------|--------------------------------------------------------------
---------------|--------------------------------------------------------------
---------------|--------------------------------------------------------------
 And here's the solo part at the end where it goes crazy... Listen for how    

-9----/-15----9---/-15--|9/159/159/159/15--17---------------------------
-9----/-15----9---/-15--|9/159/159/159/15--17---------------------------
--------------------------|---------------------------------------------------
--------------------------|---------------------------------------------------
--------------------------|---------------------------------------------------
--------------------------|---------------------------------------------------
 many times to play
Наверх