Аккорды «The Cure»

The Cure
The Cure — британская музыкальная группа, чей стиль звучания довольно трудно определить. Одни из пионеров альтернативного рока и пост-панка. Группа, несмотря на альтернативную направленность, достигла популярности и коммерческого успеха — во всём мире продано свыше 50 миллионов копий их альбомов. Группа также оказала огромное влияние на рождение и формирование готической субкультуры, создав отличное подспорье для таких ветеранов готик рока, как The Sisters of Mercy, Bauhaus. В 1976 году семнадцатилетний… Читать полностью... The Cure — британская музыкальная группа, чей стиль звучания довольно трудно определить. Одни из пионеров альтернативного рока и пост-панка. Группа, несмотря на альтернативную направленность, достигла популярности и коммерческого успеха — во всём мире продано свыше 50 миллионов копий их альбомов. Группа также оказала огромное влияние на рождение и формирование готической субкультуры, создав отличное подспорье для таких ветеранов готик рока, как The Sisters of Mercy, Bauhaus. В 1976 году семнадцатилетний Robert Smith (вокал, гитара) с одноклассниками Michael Dempsey (бас), Laurence «Lol» Tolhurst (ударные) и Porl Thompson (гитара) собрал в Кроули, Западный Суссекс, Англия (англ. Crawley, West Sussex) группу, называвшуюся «The Easy Cure». Группа сразу приступила к написанию собственных песен. В 1977 году The Easy Cure заключили контракт на запись музыкального материала с фирмой Hansa Records. Через год группа была переименована в The Cure, и, как трио (без Porl Thompson) заключила контракт с Fiction Records (дистрибуция производилась фирмой Polydor). Первый сингл вышел, однако, на лэйбле «Small Wonder», и назывался «Killing an Arab». В 1979 году вышел первый альбом «Three Imaginary Boys», которым группа осталась не совсем довольна (в Америке этот альбом был издан под названием «Boys Don't Cry» с измененным треклистом и обложкой). В том же 1979 году, музыканты The Cure под другим названием — «Cult Hero» — выпустили 7" сингл. Затем последовали турне, в которых The Cure выступали с другими группами, игравшими пост-панк, среди которых Joy Division и Siouxsie and The Banshees. Роберт Смит иногда играл параллельно вместе со Siouxsie and The Banshees, а с участником этой группы Steven Severin, он создал временный проект «The Glove». 1980-е В 1980 году выпустили минималистичный альбом «Seventeen Seconds», который поднялся в британских чартах на 20-е место. Сингл «A Forest» стал первым хит-синглом The Cure в Великобритании. В том же году группа отправилась в первое мировое турне. Альбом «Faith» 1981 года был выпущен в упаковке с кассетой с саундтреком к фильму «Carnage Visors», и достиг в британских чартах 14-го места. В 1982 году последовал альбом «Pornography» (8-е место в британских чартах, первый альбом группы в топ 10), угрюмый и нигилистический. В то время участники группы постоянно принимали наркотики, а альбом дал повод для слухов, что Смит имеет склонность к суициду. После ссоры со Смитом в клубе, группу на пару лет покидает один из самых важных и долговременных участников — бас-гитарист Саймон Гэллап (англ. Simon Gallup). Он собирает новую группу «Fools Dance». В 1980-х группа выпустила ещё несколько альбомов — «The Top» (1984), «The Head on the Door» (1985), «Kiss Me Kiss Me Kiss Me» (1987), «Disintegration» (1989) — и завершила несколько больших концертных турне. Многие последующие альбомы и синглы The Cure повторили успех предыдущих, постоянно занимая хорошие позиции в чартах. В 1986 году вышел сборник всех синглов и би-сайдов The Cure, «Standing on a Beach». 1990-е В 1990 году вышел сборник ремиксов старых композиций под названием «Mixed Up», с единственной новой песней «Never Enough», которая стала хитом. Самую высокую позицию в чартах из всех альбомов группы занял альбом 1992 года «Wish» — первое место в Великобритании и второе в США. В музыкальном отношении этот альбом, в некотором роде, предопределяет звучание альтернативного рока 1990-х. Материалы последовавшего турне «Wish Tour» легли в основу концертных альбомов «Show» (сентябрь 1993) и «Paris» (октябрь 1993). Porl Thompson (гитара), несколько раз появлявшийся в составе The Cure, покинул группу, чтобы присоединиться к проекту участников Led Zeppelin Роберта Планта (англ. Robert Plant) и Джимми Пейджа (англ. Jimmy Page). В 1994 году, Lol Tolhurst, покинувший группу в 1989, подал в суд на Роберта Смита и Fiction Records, по поводу выплаты гонораров и права на название The Cure. После длительного судебного разбирательства он проиграл. В 1996 году был выпущен альбом «Wild Mood Swings», в 1997 — сборник мульти-платиновых синглов «Galore», дополняющий сборник «Staring at the Sea» (он же «Standing on a Beach»). 2000-е В 2000 вышел альбом «Bloodflowers», который, согласно Смиту, является завершением трилогии, начатой альбомами «Pornography» (1982) и «Disintegration» (1989). Материал с этих альбомов был исполнен на серии концертов в Берлине, и выпущен на DVD Trilogy (2003). В 2003 The Cure сменили лэйбл на iam Records. В 2004 на их старом лэйбле «Fiction Records» вышел сборник «Join the Dots - The B-Sides & Rarities», 1978—2001 (The Fiction Years), в который вошли 70 композиций The Cure, в том числе раньше не издававшиеся и прочие раритеты. В 2004 году вышел альбом, названный так же, как и группа — «The Cure». Его продюсировал владелец лэйбла Ross Robinson. Альбом получился с большим уклоном в гитарный рок. Состав Роберт Смит (Robert Smith) — вокал, гитара, клавишные Порл Томпсон (Porl Thompson) — гитара, клавишные, саксофон Саймон Гэллап (Simon Gallup) — бас Джейсон Купер (Jason Cooper) — ударные Дискография «Three Imaginary Boys» (в США — «Boys Don't Cry») (1979) «Seventeen Seconds» (1980) «Faith» (1981) «Pornography» (1982) «Japanese Whispers» (1983) «The Top» (1984) «The Head on the Door» (1985) «Kiss Me Kiss Me Kiss Me» (1987) «Disintegration» (1989) «Wish» (1992) «Wild Mood Swings» (1996) «Bloodflowers» (2000) «The Cure» (2004) «4:13 Dream» (2008) Скрыть...
Популярные аккорды The Cure:
алфавиту | просмотрам | случайно
  • All the other tabs for this song are awfully wrong, this is 110% correct. So use this.
    (If you like only tune down the A and D strings)
    
    Intro                        Outro (the same)
    F|-----------------------|  |-----------------------|-------------------------
    C|-----------------------|…
  • INTRO: ( 8X )
    
    I-------------------------I-------------------------I------------------------I--------------------------I
    I-------------------------I-------------------------I------------------------I--------------------------I
    I-------------------------I-------------------------I-2--2---222-------------I5-5-5-5-5-5-5-5-----------I
    I--5---5---5-5---5--------I--O--O-O--OO--O-O--------I------------------------I--------------------------I
    
    
    VERSE…
  • Normal tuning (E,A,D,G,b,E)
    
    
     Em7         Fm
    --0--      --0--|
    --3--      --1--|
    --0--      --2--|
    --2--      --3--|
    --2--      --3--|
    --0--      --1--|
    
    Intro
    
    Em7     Am     C       G  ( 4 times)
    
    Am      C      Em…
  • This is the first part to the verse
    |--------------------------------------------------------|Verse Part 1
    |-7-7-7-9-10-9-------------7-9-----10-9-7---------9---10-|
    |--------------10-10-10-10-----8-8--------7-7-7-7---7----|
    |--------------------------------------------------------|
    
    Play…
  • Tuning: standard (E,A,D,G,B,e)
    
    
    OPENING RIFF:
    
    e|------------0---2---0--------0------
    B|--------3---------------3-----------
    G|----0-------------------------------
    D|------------------------------------
    A|------------------------------------
    E|------------------------------------
    
    D…
  • Chords
    Em    C     G     G/F#   Em7   C9    D      D(2)   D#    Em7(2) Em9  Em(2)  CaddG
    0     0     3     3      3     3     2-0    0      0     0      0    7      3
    0     1     3     3      3     3     3      3      4…
  • Guitar 1
    ----4-----------4--|------4-----------4----|-----0-----------|
    -------------------|-----------------------|-----0---------5-|
    ----4-----------4--|------4---4--4----4----|-------4--4----4-|
    -------------2-----|---------------2-------|------------2----|
    -4-----4--4--------|-4-------4--4----------|--0---0--0-------|
    -------------------|-----------------------|-----------------|
    guitar…
  • Intro:
    E---------------------
    B---------------------
    G---------------------
    D---------------------
    A---------------------
    E--0-12--0-8--0-7--0-8
    
    E-----------------------------------
    B-----------------------------------
    G-----------------------------------
    D-----------------------------------
    A-----------------------------------
    E--0-12--0-14--0-15--12-10-8-7-5-3-0
    
    Em…
  • BASS
    
    VERSE
    
    G -----------------------------------------------------------------------|
    D -----------------------------------------------------------------------|
    A -2---2-2-2-2-2-2---0---0-0-0-0-0-0-------------------------------------|…
  • |-------------------------------------------------------------------------------------|
    |-------------------------------------------------------------------------------------|
    |-------------------------------------------------------------------------------------|
    |--19-17-16-------------19-17-16-------19-17-16--------------------16-17-16-----------|
    |-----------17-17/19-19----------17-19----------17-17/19-19--17-19----------17-14-19--|
    |-------------------------------------------------------------------------------------|
    This…
  • Normal tuning (E,A,D,G,b,E)
    
    Intro
    
    Em   G         (3 times)
    
    Bm   A         (3 times)
    
    D    C    Bm   (3 times)
    
    A    Bm   Cis  (1 time)
    
    D    Em        (4 times)
    
          D                    Em          D…
  • A                               E
    oh elise it doesn't matter what you say
                                 Bm
    I just can't stay here every yesterday
                        D
    like keep on acting out the same
    
    the way we act out
    A
    every…
  • Intro:
    
    Guitar 1 (chords): F#m A D  F#m A D  F#m A D C#m
    
    Guitar 2 (tab):
    
    ------------------5---------------9--
    -2----------------5-2-------------9--
    ---4-2------------7---4-2---------9--
    -------4-2-0------7-------4-2-0---11-
    -------------4----5---------------11-
    ---------------2----------------9-9--
    
    Bm…
  • Intro - bassfigure (play the whole song with little variations)
    
    E--------------------------------------------------------------------
    B--------------------------------------------------------------------
    G--------------------------------------------------------------------
    D------------------------------4-4-----------------------------------
    A-0--0-0-0--0-4-4--2--2-2-2--2------0--0-0-0--0-4-4--2--2-2-2--2---2-
    E----------------------------------------------------------------2---…
  • Bassline (arranged for guitar):
    
    	e|----------------------|
    	B|----------------------|
    	G|------0--------0------|
    	D|-----------0-0---00---|	Played 3 times
    	A|--3-3---33------------|
    	E|----------------------|
    
    	e|----------------------|
    	B|----------------------|
    	G|------0--------0------|
    	D|----------------------|	Played…
  • (intro is like verses)
    
    Em    C     Em        C              Em        C     B
    Hello image sing me a line from your favourite song
    Em        C               Em             C
    Twist and turn and you're trapped in the lights…
  • A			         D 
    I’ve been looking so long at these      pictures of you 
    that I     almost believe that they’re  real 
    I’ve been   living so long with my    pictures of you	    	
    		
      D          A	         D	 
    that I…
  • A          Dmaj7       A                   D
    Yesterday I got so old I felt like I could die
    A          D           A                  D
    Yesterday I got so old it made me wanna cry
    
    A                D
    Go on go on just walk…
  • Main riff /intro
    
          A         B         C             B
    E---------------------------------------------------------------
    B---------------------------------------------------------------
    G---------------------------------------------------------------
    D----7-7-7-7-7-9-9-9-9-9-10-10-10-10-10-9-9-9-9-9---------------
    A---------------------------------------------------------------
    E---------------------------------------------------------------…
  • A        G    C          G             F
    Slowly fading blue the eastern hollows
    A           G   C             G           F
    Catch the dying sun the night time follows
    
    ..
    
    E        F           E      F
    See your head in the…
  • A5 F5 D5 F5 }*4
    
    A5         G5          D5    F5
    I chose an eternity of this
    A5           G5         D5                 F5
    Like falling angels the world disappeared
    A5                G5          D5                 F5
    Laughing…
  • Bm Bm Bm Bm A F# Bm Bm
    
      Bm
    A nightmare of you
       Bm
    Of death in the pool
    Bm                                Bm
    Wakes me up at quarter to three
        A                         F#
    I'm lying on the floor of the night before…
  • Standard Tuning (b)
    
    Verse:
    
    |-------------------------------------------------------------------|
    |-------------------------------------------------------------------|
    |------7------5--------7------5--------7------5---------------------|
    |----7------7--------7------7--------7------7------7-7-7-7-7-7-7-7--|
    |--5------5--------5------5--------5------5--------5-5-5-5-5-5-5-5--|
    |-------------------------------------------------------------------|
    
    Intro/Bridge:
    
    |------------------------------------------------------------------|
    |-------------------------------------------------1-1--------------|
    |----------2-2-2-0-0------------------------2-2-2-----3-3-2-2-3-3--|
    |--0-0-0-0-----------3-3-2-2-3-3-3--0-0-0-0------------------------|
    |------------------------------------------------------------------|
    |------------------------------------------------------------------|
    
    |-----------------------------------------------------------------|
    |----------------1-1-------------1-1-------------1-1--------------|
    |----------2-2-2-----3-3-2-2---------3-3-2-2---------3-3-2-2------|
    |--0-0-0-0-------------------3-3-------------3-3-------------3-3--|
    |-----------------------------------------------------------------|
    |-----------------------------------------------------------------|
    
    Chorus:
    
    |--3-3-3-0-0-0-0-0--1-1-1-0-0-0-0-0--|
    |--3-3-3-3-3-3-3-3--3-3-3-3-3-3-3-3--|
    |--3-3-3-3-3-3-3-3--2-2-2-2-2-2-2-2--|
    |------------------------------------|
    |------------------------------------|
    |------------------------------------|
    
    End…
  • I play this usual, meaning I tune my low E-string down to C.  The intro
    is:
    
    E --------------------|
    B --------------------|
    G --------------------|
    D -----------4--------|
    A -1---3--4------4--3-|
    C --------------------|
    
    After…
  • Tuning: Standard
    (Riff 1)
    e|-10-10-10-9-------------------------------------------------------------|
    B|--0--0--0-0--10----10-8-------------------------------------------------|
    G|--------------0-----0-0--11-11-11-9-------------------------------------|
    D|--------------------------0--0--0-0--11----11-9-------------------------|
    A|--------------------------------------0-----0-0-------------------------|
    E|------------------------------------------------------------------------|
    
    e|-10-10-10-9-------------------------------------------------------------|
    B|--0--0--0-0--10----10-8-------------------------------------------------|
    G|--------------0-----0-0--11-12-14-14-12-11------------------------------|…
  • Intro (lead 1)
    E ------------------------------------------------------------------|
    B ------------------------------------------------------------------|
    G ------------------0-2---------------------------------------------|
    D…
  • Dm			   Bb	G
    You're so gorgeous I'll do anything
    I'll kiss you from your feet to where your head begins
    You're so perfect, you're so right as rain
    You make me make me hungry again
    
      F 			E
    Everything you do is irresistible…
  • The strange intro is something like this:
    
    E -------------0--0------------|
    B -0--0--7-----5--5--------0---|
    G -4--4--4-----------6-----4---|
    D -----------------------------|
    A -----------------------------|
    E -----------------------------|
    
    
    The…
  • Am                G             Dm              Am
    He waits for her to understand, but she won´t understand at all
    She waits all night for him to call, but he won´t call anymore
    He waits to hear her say: forgive
    But…
  • BASS
    
    INTRO & OUTRO
    
    G ----------------------------------------------------------------------------|
    D ----------------------------------------------------------------------------|
    A ----------------------------------------------------------------------------|…
  • F#m             E
      (I)   It's a perfect day for letting go
                D                         E
            For setting fire to bridges, boats,
                        F#m             E
            And other dreary worlds you know…
  • First Guitar
    Intro/Verse
    |-5--5-5-0--0--0-0-0--0-0-0--0-0-0-0-0-0-0-0-|
    |-7--7-7-7--3--3-3-0--3-3-0--5-5-5-5-7-7-7-7-|
    |-7--7-7-7--0--0-0-0--0-0-0--0-0-0-0-0-0-0-0-|
    |-0--0-0-0--0--0-0-0--0-0-0--5-5-5-5-7-7-7-7-|
    |-0--0-0-0--2--2-2-2--2-2-2--0-0-0-0-0-0-0-0-|
    |-----------0--0-0-0--0-0-0------------------|
    
    Chorus
    |-0--0-0-0--0--0-0-0--0--0-0-0--0--0-0-0--0--0-0-0--0--0-0-0--0--0-0-0-
    |-2--2-2-0--3--3-3-3--2--2-2-0--3--3-3-3--2--2-2-0--3--3-3-3--2--2-2-0-
    |-0--0-0-0--0--0-0-0--0--0-0-0--0--0-0-0--0--0-0-0--0--0-0-0--0--0-0-0-
    |-2--2-2-2--0--0-0-0--2--2-2-2--4--4-4-4--2--2-2-2--0--0-0-0--0--0-0-0-
    |-0--0-0-0--2--2-2-2--0--0-0-0--2--2-2-2--0--0-0-0--2--2-2-2--2--2-2-2-
    |-----------0--0-0-0------------0--0-0-0------------0--0-0-0-----------
    
    |-5--5-5-5-|
    |-3--3-3-3-|
    |-0--0-0-0-|
    |-4--4-4-4-|
    |-2--2-2-2-|
    |-0--0-0-0-|
    
    Middle…
  • ------3-0---------|--------3--0--------------|
    -1------------1---|-1------------------------|
    ---2------------2-|----2---------------------|
    ------------------|--------------------------|
    -0----------0-----|-------------------2------|
    ------------------|-3--------------3---------|
    
    -------0-----5-7^8|-7--5--3------3---------|
    ---------1--------|---------5--3-----2-----|
    -2----------------|------------------------|
    ----3-------------|------------------------|
    -5----------------|------------------------|
    ------------------|------------------------|
    
    -----3---0-------3|-0-------3----------------|
    -1----------------|---1----------------------|
    ---2----------2---|------2-----------2-------|
    ------------------|--------------------------|
    -0----------0-----|--------------------------|
    ------------------|-3------------3-----------|
    
    -------0----------|-12-10-8--8----5-----5--|
    ----------1-----12|-13-12-10-18------5-----|
    -2-----------14---|------------------------|
    ----3-------------|------------------------|
    -5----------------|------------------------|
    ------------------|------------------------|
    
    The…
  • The intro bass riff is:
    
    G -0-|-2--2--2--2-4-|-4------------|--------------|-------------0-|
    D ---|--------------|----2--2--0-2-|--------------|-2--0--2-0-2---|
    A ---|--------------|--------------|-0--0--0--0-0-|---------------|
    E…
  • D               B               D               B
    
    D               B               D               B
    
    D               B               D               B
    No Light                        No People
    D               B…
  • Guitar ONE (power chords) :
    
    Intro : C5 Bb5 F5 G#5 C5 Bb5 F5 G#5 C5 Bb5 F5 G#5
    
    C5              Bb5
    Sharp and open, leave me alone
        F5                  G#5
    And sleeping less every night
           C5…
  • FIRST RIFF
    
    listen to the song to get the exact rhythm.
    
    G -------------------------------------------------------------------------------------------|
    D -------------------------------------------------------------------------------------------|
    A…
  • Intro: D Cadd9 G Cadd9 (dum dum dum)
    
     D		Cadd9	G
    You're such a strange girl
    	    Cadd9	D     Cadd9	G Cadd9
    I think you come from another world
    You're such a strange girl
    I really don't understand a word
    You're such a strange…
  • Here is the basic bass part for the chords:
    
           Am             Em           F 
    
    G --------3-3-2-2----------------|-------------------------------|
    D -----------------------3-3-2-2-|--------3-3-2-2--------3-3-2-2-|
    A…
  • This is a song off of -The Head On The Door-, an album in which Robert
    Smith wrote all the tracks by himself.  The guitar riff is quite simple
    and it oscillates between strings (if there is such a thing).
    The basic riff…
  • Verse:
    A1             A2         Em
    NOTHING I DO MAKES MUCH SENSE
                          G
    SAY YOU DON'T REALLY GET ME ANYMORE
    B            Em      C                      Em   
    I WONDER IF YOU EVER DID... IF YOU EVER DID…
  • Guitar 1
    e----------19-----------19------------------19--------19--------------19--|
    B----20-----------------20------------------20------------20--------------|
    G-------------------------------------------------------------------------|
    D-------------------------------------------------------------------------|
    A-------------------------------------------------------------------------|
    e-------------------------------------------------------------------------|…
  • Em      C     Em        C              Em        C    Bm
      Hello image sing me a line from your favourite song
      Em        C           Em              C
      Twist and turned but attracked to the light
               Em…
  • Riff 1
    G-----------------------------------
    D-----------------------------------
    A--5-5-5-55-55-5-5-8-8-8-80-00-0-0--  x 8  (or 16)
    E-----------------------------------
    
    (Variation on Riff 1)
    G----------------------------------------
    D----------------------------------------
    A--5-5-5-55-55-5-5-8-8-8-812-1212-12-12--
    E----------------------------------------
    
    
    Riff…
  • Intro: D A D A }x2 
      
     Bm                       A
    Yes I know who you remind me of 
     Bm                       A
    А girl I think I used to know 
     Bm                                A
    Yes I'd see her when the day got…
  • E|----------------|----------------|
    B|----------------|----------------|
    G|----------------|----------------|
    D|----------------|----------------|
    A|-3-3-3-3-3-3-3-3|-2-2-2-2-3-3-3-3|
    E|-3-3-3-3-3-3-3-3|-0-0-0-0-1-1-1-1|
    
    Or…
  • This song is really easy to figure out, here are the chords
    
    Verse
    |-0-|-3-|-0-|-0-|-0-|-3-|-2-|-2-|
    |-0-|-3-|-1-|-0-|-1-|-3-|-2-|-2-|
    |-0-|-0-|-0-|-0-|-2-|-0-|-3-|-3-|
    |-2-|-0-|-2-|-2-|-2-|-0-|-4-|-4-|
    |-2-|-2-|-3-|-2-|-0-|-2-|-4-|-4-|
    |-0-|-3-|-0-|-0-|-0-|-3-|-2-|-2-|
    
    
    First…
  • Intro / Bassfigure 1
    
       D                       Cis                     Ais
                                              2x
    G|---------------------------------------------------------------------------------|
    D|-12-12-12-12-12-12-12-12-11-11-11-11-11-11-11-11-8-8-8-8-8-8-8-8-8-8-8-8-8-8-8-8-|
    A|---------------------------------------------------------------------------------|
    E|---------------------------------------------------------------------------------|…
  • ----------------|---------------------------|
    ----------------|---------------------------|
    ----------------|---------------------------|
    ----2-------2---|-----0---0---0-------------|
    -0----0--0----0-|-3-3---3---3---3-----------|
    ----------------|---------------------------|
    
    Repeat…
  • Riff 1 (the tantalizing keyboard riff):
    
       Bm             C       D              E5  Em
    
    E --------2-3-2----------|------2-3-2-------|--------------|--------------|
    B ----0-3-------3-0-0-0--|--0-3-------3-0---|--------------|--------------|
    G…
  • Tuning: standard EADGBe
    
    Intro: (1:03)
    
    e --8-7-------5-----------------------|
    B --------------8-------7-------------|
    G ------------------------7-----------| x3
    D ------------------------------------|
    A ------------------------------------|
    E…
  • Special chords  A/C# x4222x  A x0222x
    Intro:                                       E4/B x2020x
    
           E--------------------|
           B-------2------|-------0-----|-------2-----|-------0-----|
           G-----2---2----|-----2---2---|-----2---2---|-----2---2---|…
  • INTRO (4x)            MAIN RIFF
    
    E --------------------||-------------|---------|-------------|-----------|
    B ---------0----------||-------6-6---|---------|-------------|-----------|
    G -------0---0--------||----5--5-5---|-3-3-----|-------------|-----------|
    D…
  • Tuning: G A# F G A# A#
    
    Intro:
    A#-----|----------------|-------------|-------------|---------------|
    A#-----|------12--------|-------------|------12-----|---------------|
    G------|---12-----------|--12---------|--12------12-|--------12-----|
    F---12-|------------12--|-------------|-------------|-----12------12|
    A#--12-|----------------|-------------|-------------|--12-----------|
    G---12-|----------------|-------------|-------------|---------------|…
  • This is the basic verse:
    
    G -4-4-4-4-4-4-4-4-1-1-1-1-1-1-1-1---------------------------------
    D ---------------------------------4-4-4-4-4-4-4-4-0-0-0-0-0-0-0-0-
    A -----------------------------------------------------------------
    E…
  • Intro
                          2 times     
    
    G--------18-------------18----------18---------------------------
    D--------17-------------17----------17---------------------------
    A---------------------------------------------------16-16-16-16--
    E--15-15-----15--15-15-------15-15--------15--15-15--------------…
  • Riff For Intro and Instrumetal                                                                         
    ||---------------------------------|----------------------------------------
    ||-------------------5-------5/9---|-------------------5-------5---9--------
    ||---0-------0---0-----------------|---5-------5---5------------------------
    ||---------------------------------|----------------------------------------…
  • The opening instrumental for -Seventeen Seconds- is simply:
    
    Riff A:
    
       A5        Bb        Gm         A5
    
    E -5-------|-6------|--3-------|--5------||
    B -5-------|-6------|-(3)------|--5------||
    G -x-----5-|-7------|--3---6-3-|--x------||
    D…
  • F#m              D
    Say goodbye on a night like this 
                  B                  D
    If it's the last thing we ever do 
          F#m             D
    You never looked as lost as this 
                  B…
  • Intro: A Bm C#m D D * C#m * Bm * A }x4
     
    Verse: 
    * A               Bm
     I would say I'm sorry
            C#m                   D
     If I thought that it would change your mind 
      A               Bm
     But I know that this…
Наверх