Аккорды The Dartz - Небывалое путешествие

Добавлено: @romashka
Дата добавления: 16 Июля 2018г.
Рейтинг:
0.0
Просмотров: 7
Транспонировать - +
Каподастр на 3 ладу

Перебор №1:
E|----------------------------|------------------------
B|------------------------0---|-------------0--[0]-----
G|------------0--------2------|----------0-------------
D|---------2--------2---------|-------4----------------
A|-----2---------3------------|--3/5-------------------
E|--0-------------------------|------------------------

Перебор №2:
E|--------------------------------------3-----
B|-----------0-----------0-----------0--------
G|--------0-----------0-----------0-----------
D|-----0-----------0-----------0--------------
A|--------------------------2-----------------
E|--3-----------2-----------------------------

Вступление: перебор №1

[перебор №1]
Я в автобусе еду домой;
      C                   Bm                 Am
За окном в полудрёме кварталы плывут за кварталами,
       D
Окна светятся.
[эта строчка снова перебором №1]
Мой автобус идет на кольцо,
[а эта перебором №2]
Где кондуктор объявит, что всё,
       C             Bm        Am    B5
Что закончилось небывалое путешествие.

[первые две строчки перебором №1]
Я - автобус последний на линии,
Стёкла тёмные, полосы синие,
       C            D
Шлю усталое вам приветствие.
[перебор №1]
Мне давно бы пора на покой,
[перебор№2]
Но пока я иду не пустой,
      C            Bm        Am      B5
Не закончится небывалое путешествие.

Проигрыш: G Em Am D }2x

[первые две строчки перебором №1]
Я душа, я гляжу с изумлением, 
Как проносятся мимо огни
      C          D
Запоздалые и нетрезвые.
[перебор №1]
Мой автобус летит всё быстрей
[перебор №2]
И со звуком открытых дверей
      C          Bm        Am  B5
Завершается небывалое путешествие.

[первые две строчки снова перебором №1]
Я - создавший все в мире автобусы,
Начертивший маршруты на глобусе,
      C          D
Расписания и созвездия.
[перебор №1]
Ты - единственный мой пассажир,
[перебор №2]
Погляди, как меняется мир:
     C          Bm        Am   B5
Начинается небывалое путешествие.

Проигрыш: G Em Am D }2x
          Em G Am D }2x   
comments powered by Disqus
Наверх