Аккорды «The Early November»

The Early November
The Early November собрались городе Хаммонтон, штат Нью-Джерси, США, где Ace Enders, барабанщик Jeff Krummer и басист Sergio Anello впервые попробывали играть вместе. Позже к ним присоединился гитарист Joe Marro. После того, как ребята отослали своё демо в Drive Thru Records, им тут же предложили контракт. В пределах нескольких месяцев их EP For All Of This был записан в оригинальной и акустической версии. В то же время аудитория по всей стране начала проявлять к группе неподдельный интерес, что… Читать полностью... The Early November собрались городе Хаммонтон, штат Нью-Джерси, США, где Ace Enders, барабанщик Jeff Krummer и басист Sergio Anello впервые попробывали играть вместе. Позже к ним присоединился гитарист Joe Marro. После того, как ребята отослали своё демо в Drive Thru Records, им тут же предложили контракт. В пределах нескольких месяцев их EP For All Of This был записан в оригинальной и акустической версии. В то же время аудитория по всей стране начала проявлять к группе неподдельный интерес, что в особенности стало заметно во время выступлений The Early November на сцене Drive Thru Records на Wraped Tour. Их три песни попали в Top 5 в чартах MP3.com, благодоря чему The Early November стали приглашать учавствовать в турах по США и Объединённому Королевству вместе с Taking Back Sunday, The Starting Line, Count The Stars и Home Grown. После такого успеха The Early November не могли дождаться своего возвращения в студию. И на этот раз ребята гораздо лучше знали, что они себя представляют из себя как группа и чего они хотят от записи. Со дня официального релиза The Room's Too Cold было продано около 100 000 копий альбома. В его поддержку группа отправилась в свой первый тур, где выступала в качестве хедлайнера, а лето 2004 года они провели на главной сцене Wraped Tour. По окончанию летних выступлений Ace Enders занялся своим сольным проектом под названием I Can Make A Mass Like Nobody's Business, и нет сомнений, что это обстоятельство внесёт в новые песни, которые The Early November уже пишут для следующего альбома, свежую струю. Скрыть...
Популярные аккорды The Early November:
алфавиту | просмотрам | случайно
  • Tuning: Drop d
    
    Opening
    e|---------------------------------------------------------------------------|
    B|---------------------------------------------------------------------------|
    G|-8---10--13-----8---10--13-------------------------------------------------|
    D|-8---10--13-----8---10--13-------------------------------------------------|
    A|-6---8---11-----6---8---11-------------------------------------------------|
    D|---------------------------------------------------------------------------|
    
    Verse
    Tonight…
  • Intro uses hermonics
    
    e|-------------------------------------------------------------------| 
    B|-------------------------------------------------------------------| 
    G|-------------------------------------------------------------------|…
  • Tuning:DADGBE
    Guitar 1 verse/intro
    e|---------------------------------------------------------------------------
    B|---------------------------------------------------------------------------
    G|--7------7-----------------------------------------------------------------
    D|--7------7-----------------------------------------------------------------
    A|--x------x-----------------------------------------------------------------
    D|--7------5------------------------------------------------------------------
    Guitar…
  • standard tuning
    
    intro
    e-----------------------------------------------------------------|
    B-----------------------------------------------------------------|
    G-------7---------7------7-----7-------7----------7---------------|
    D-----7---7-----7------7-----7---7---7---7-(2x)---7---------------|
    A---5---------------------------------------------5---------------|
    E-----------5/7------5-----3-------3--------------3---------------|
    
    verse
    e-----------------------------------------------------------------|
    B-----------------------------------------------------------------|
    G--7-----7----7-7-7--7--------------------------------------------|
    D--7-----7----7-7-7--7--------------------------------------------|
    A--5-----x----x-x-x--5--------------------------------------------|
    E--------5----7-5-0--3--------------------------------------------|
    
    pre…
  • Capo: None
    Tuning: Standard
    
    Chords:
    Bm  - x24432
    D   - xx0232
    F#m - 244222
    E   - 022100
    A   - x02220
    
    
    
             Bm                      D
    (Tell me why you left, tell me where you went.
            F#m…
  • intro/verse:
    e|--------------------------------------|
    b|--------------------------------------|
    g|--7-7-7-7-7-7-7-7--7-7-7-7-7-7-7-7-7--|
    d|--7-7-7-7-7-7-7-7--7-7-7-7-7-7-7-7-7--|
    a|--0-0-0-0-0-0-0-0--5-5-5-5-5-5-5-5-5--|
    e|--x-x-x-x-x-x-x-0--5-5-5-5-5-5-5-5-5--|
    
    play…
  • Intro/Chorus
    (Guitar 1)
    eb|------------------------------------------|
    Bb|------------------------------------------|
    Gb|------------------------------------------|
    Db|--4--0--7--4--0--7--4--0--7--4--0--7--4---|
    Ab|--4--0--7--4--0--7--4--0--7--4--0--7--4---|
    Db|--4--0--7--4--0--7--4--0--7--4--0--7--4---|
    
    (Guitar…
  • Verse
              
                    Eb
    I just found a friend 
                    Ab
    In one of your lies
                    C 
    To treat me so nice
               Bb 
    I can't believe my bones
               Eb          Ab
    When they…
  • Intro
    Clean
    Guitar 1
        0:00
    e|---------------------------------------------------------------------------|
    B|---------------------------------------------------------------------------|
    G|---------------------------------------------------------------------------|…
  • h   - hammer on
    p   - pull
    ( ) - optional note
    ~   - let ring out
    
    
    Intro/Verse: (strumming) (x2)
    	
    eb|--0------------[4-2]------0------------0-----(0)-----------0------------
    Bb|--0------------[0-0]------0------------0------3------------0------------
    Gb|--2------------[2-2]------6------------7------2------------1------------
    Db|--2------------[2-2]------6------------7-(or)-0------------2------------
    Ab|--0------------[0-0]------4------------5------0------------2------------
    Eb|--0------------[0-0]-----(0)-----------0------0------------0------------…
  • Eb--------|
    Bb-------1| 
    Gb-------0|  4
    Db----2---|  /times
    Ab--3---3-| /
    Eb--------|/
    
    Eb--------|
    Bb-------1| 
    Gb-------0|  4
    Db----2---|  /times
    Ab--0---0-| /
    Eb--------|/
    
    Eb--------|
    Bb-------1| 
    Gb-------0|  4
    Db----2---|…
  • It is played in Drop C but sounds fine in drop D
    
    Intro
    --------------------------------------------
    --------------------------------------------
    --10---10-|------10--12--14/--10--12--------
    --10---10-|--then-x----x---x/--x----x-------
    --8----0--|x2…
  • Tuning: Half step down
    
    Intro:
    
    Eb|---------------------------|
    Bb|---------------------------|
    Gb|---------------------------|  
    Db|---------------------------|  x4
    Ab|-2--4--5--4----------------|
    Eb|-0--0--0--0----------------|
    
    Verse:
    
    See…
  • Standard
    Capo on 3
    
    
    e---------------------------------------------------------|
    B-0-----0------------0-------------1------1------1~-------|
    G---0-----0----2~--2---2--0----0-----0------0-------------|
    D-----0-----0----------------2---2-----2------2-----------|
    A-3------------3------------------------------------------|
    E---------------------------------------------------------|
    
    e---------------------------------------------------------|
    B-0-----0------------0-------------1------1~--------------|
    G---0-----0---2~--2----2--0----0-----0--------------------|
    D-----0-----0----------------2---2-----2------------------|
    A-3-----------3-------------------------------------------|
    E---------------------------------------------------------|
    
    And…
  • * = mute guitar
    h = hammer on
    p = pull off
    / = slide up
    \ = slide down
    ~ = let ring
    
    song progression
    
    intro/verse 4X
    prechorus
    chorus
    intro/verse 4X
    prechorus
    chorus 2X
    bridge
    solo intro
    solo (with chorus…
  • eb--0---0-0-3h0---0---0-0-3/5------|
    Bb----3---------3---3--------------|
    Gb---------------------------------|
    Db---------------------------------|
    Ab--3-----2-------0-----2----------|
    Eb---------------------------------|
    
    eb--0---0-0---0---0----------------|
    Bb----3-----3-------3--------------|
    Gb--------------------0------------|
    Db---------------------------------|
    Ab--3-----2-------0----------------|
    Eb---------------------------------|
    
    eb--3-------3-----3-------3--------|
    Bb-----1--------------1------------|
    Gb----0-------------2--------------|
    Db------------0-2-3-----3----------|
    Ab--3-----3------------------------|
    Eb---------------------------------|
    
    eb--3-------3-----3-------3--------|
    Bb-----1--------------1------------|
    Gb----0-------------2--------------|
    Db------------0-2-3-----3----------|
    Ab--3-----3------------------1-0---|
    Eb---------------------------------|…
  • Intro/Verse
    eb|---------------------------------------------|
    Bb|---------------------------------------------|
    Gb|---------------------------------------------|
    Db|--6-6-6-6-6-6-9-9-9-9-9-9/2-2-2-2-2-2-2-2-2--|
    Ab|--6-6-6-6-6-6-9-9-9-9-9-9/2-2-2-2-2-2-2-2-2--|
    Db|--6-6-6-6-6-6-9-9-9-9-9-9/2-2-2-2-2-2-2-2-2--|…
  • Intro
    e-------------------------|
    B-------------------------|
    G--7777777----7777777-77-7|
    D--7777777----7777777-77-7| reapeat untill chorus 
    A--5555555----5555555-55-5|/
    E--3333333----5555555-77-5|
    ____________/______________________
    not…
  • EADGBE tuning
    
    Capo 3rd fret
    
    E       A        C
    E-0-   E-0-    E-0-|
    B-0-   B-0-    B-0-|
    G-0-   G-2-    G-5-|
    D-2-   D-2-    D-5-|
    A-2-   A-0-    A-3-|
    E-0-   E-0-    E-0-|
    
    Figure out the strumming
    
    Intro:
    E…
  • Standard Tuning
    
    It's probably not the way Ace plays it, but the notes are there. Basically play a 
    D chord the entire time without the finger on the high E string and simply add on 
    the bass notes. During the G on the…
  • Intro/Verse
    (Guitar 1)
    eb|-1--5--1--3----|
    Bb|-1--5--1--3----|
    Gb|-2--5--2--3----|
    Db|-3--7--3--5----|
    Ab|-3--7--3--5----|
    Eb|-1--5--1--3----|
    
    (Guitar 2)
    eb|--17/15--------15--12/13/12---------------|
    Bb|--------13-15-----------------------------|
    Gb|---------------------------7-9-7-4/5/4-2--|
    Db|------------------------------------------|
    Ab|------------------------------------------|
    Eb|------------------------------------------|
    
    eb|--17/15--------15--12/13/12---------|
    Bb|--------13-15-----------------------|
    Gb|---------------------------7-9-12~~-|
    Db|------------------------------------|
    Ab|------------------------------------|
    Eb|------------------------------------|
    [ps:…
  • CAPO 1
    
    Music intro:
    Gmaj9     Dmaj9     Bm     (A)
    Verse 1:
    Gmaj9
    I fell down thirty feet of stairs
          Dmaj9      Bm              (A)
    Landed in a hole buried under cloak
    Gmaj9
    And as I grow I tried to let this…
  • Intro
    
    Guitar one (dist)
    D#|-----------------------------------------------------------------------|
    A#|-----------------------------------------------------------------------| 
    F#|--5--------------------------------5--------5--------5--------5--------|
    C#|--5-X8-(only…
  • Tuning: Eb Ab Db Gb Bb eb (half a step down)
    the other tab on here is off by about a full step this is basically perfect.
    
       Intro/Verse
    e|--------------------------------------------------------------------------|
    B|--------------------------------------------------------------------------|
    G|------------------5--5------4------5--------------------------------------|
    D|---5h7-----5------5--5------4------5--------------------------------------|
    A|---5h7-----5------3--3------2------3--------------------------------------|
    E|---5-------3------3--3------2------3--------------------------------------|…
  • Tuning: Standard half-step down (Eb, Ab, Db, Gb, Bb, Eb)
    
    ---3--3--5--5--7--7--7--7--7--5--3--2--X--X--X----X--X--------|
    ---3--3--3--3--0--0--0--0--0--0--3--3--3--3--3----3--3--------|
    ---0--0--2--2--0--0--0--0--0--0--0--2--0--0--0----0--0--------|
    ---2--2--0--0--0--0--0--0--0--0--2--0--X--X--X----X--X--------|
    ---2--2--X--X--X--X--X--X--X--X--2--X--3--3--3----3--3--------|
    ---0--0--X--X--3--3--3--3--3--3--0--X--X--X--X----X--X--------|…
  • Tuning: Eb Ab Db Gb Bb eb (half a step down)
    
    verse
    e|------3----------3----------3------------------------------------|
    B|------3----------3----------3------------------------------------|
    G|-----------------2----------------------0---0---0----------------|
    D|----------------------------2--------0h2-0h2-0h2-----------------|
    A|------2---------------------3------------------------------------|
    E|------3----------2-----------------------------------------------|
    
    bridge
    e|------------------3--------------3----------------2--------------|
    B|----0-------------3--------------3----------------3--------------|
    G|----0----------------------------2----------------2--------------|
    D|----2-------------2----------------------------------------------|
    A|----2-------------3----------------------------------------------|
    E|----0----------------------------2-------------------------------|
    
    chorus
    e|---3-----------3------------3-----------3-----------------|
    B|---3-----------3------------3-----------3-----------------|
    G|---------------2------------------------------------------|
    D|----------------------------2-----------2-----------------|
    A|----------------------------3-----------3-----------------|
    E|---3-----------2------------------------------------------|
    
    solo
    e|----------15-14-12---------------------------------------------------|
    B|--15br-------------15-13-12------------------------------------------|
    G|--14br---------------------------------------------------------------|
    D|----------------------------10/12~---/14~---10p9-----14p12-----------|
    A|-------------------------------------------------10--------12----10~-|
    E|---------------------------------------------------------------------|
    
    e|----------------------------------------------------------15----15---|
    B|----------------------------------------------------15h17----17------|
    G|--14b-12----------------------------14-12----12~---------------------|
    D|--14b-12--10-9--------------10--9---------14-------------------------|
    A|---------------------10~----10-10------------------------------------|
    E|---------------10-12-------------------------------------------------|…
  • Tuning: Standard
    
    Intro/Verse
    Guitar 1/LEFT HAND:
    
    e|-----------------------------------------------------------------------------|
    B|-----------------------------------------------------------------------------|
    G|-2-2-2-2-3-3-3-3-5-5-5-5-7-7-7-7--9--9--9--9--9--9--9--9---------------------|
    D|-3-3-3-3-5-5-5-5-7-7-7-7-8-8-8-8-10-10-10-10-11-11-11-11---------------------|
    A|-----------------------------------------------------------------------------|
    E|-----------------------------------------------------------------------------|
    
    (continued)
    e|-----------------------------|--------------------------------------------------|
    B|-----------------------------|--------------------------------------------------|
    G|-7-7-7-7-6-6-6-6-6-6-6-6----|----6------(play…
  • Tuning:DADGBE
    Guitar1 Intro/Verse "with this being said.." notes in parentheses are optional.
    you can use them to give the chord more color
    
    e|---------------------------------------------------------------------------
    B|---------------------------------------------------------------------------
    G|--------------------------------------------------------(2x)---------------
    D|-777-77----99----55----99----55----99----55----7-7-7-----------------------
    A|-777-77----99----55----99----55----99----55----7-7-7-----------------------
    D|-777-77----99----55----99----55----99----55----7-7-7-----------------------
    
    Guitar…
  • (U)  (U)  |                      | x 4
    de--0~--12~--------------------------------|
    dB--0~--10~--------------------------------|
    dG--0~---9~---2~---------2-----------------|
    dD--0~---0~---2~-2---2---2--44444444-------|
    dA--0~---0~---0~-4p0-4p0-0--44444444-------|
    dE-------0~-----------------44444444-------|
    
    de-----------------------------------------|
    dB-----------------------------------------|
    dG-----------------------------------------|
    dD--x2--22x-2x-2x--66666666…
  • Intro/Chorus
    eb|--------------------|
    Bb|--------------------|
    Gb|-5----------4-------|
    Db|-5----5-----4----2--|
    Ab|-3----5-----2----2--|
    Db|------5----------2--|
    
    Verse (and the bridge)
    (Guitar 1)
    eb|--------------------------------------------------|
    Bb|--------------------------------------------------|
    Gb|--5-5-5-5--7-7-7-7--5-5-5-5--7-7-7-7------8-8-8-8-|
    Db|--5-5-5-5--7-7-7-7--5-5-5-5--7-7-7-7---x3-8-8-8-8-|
    Ab|--3-3-3-3--5-5-5-5--3-3-3-3--5-5-5-5------6-6-6-6-|
    Db|--------------------------------------------------|
    
    (Guitar…
  • Intro/Verse/Outro
    eb|--------2---------2----------2----------2-----------7----------7--------|
    Bb|----------3---------3----------3----------3-----------8----------8------|
    Gb|----0----------0---------0----------0-----------0----------0------------|
    Db|------------------------------------------------------------------------|
    Ab|------------------------------------------------------------------------|
    Eb|--3---3------3---3-----3---3------3---3-----3/8---8------8---8-----8----|
    
    eb|------7--------7------------2---------2----------2----------2-----------|
    Bb|--------8--------8------------3---------3----------3----------3---------|
    Gb|---0--------0-----------0---------0----------0----------0---------------|
    Db|------------------------------------------------------------------------|
    Ab|------------------------------------------------------------------------|
    Eb|-8---8----8---8-----8\3---3-----3---3------3---3------3---3-----3/8-----|
    
    eb|-------7----------7---------7--------7----------------------------------|
    Bb|---------8----------8---------8--------8--------------------------------|
    Gb|---0----------0---------0---------0-------------------------------------|
    Db|------------------------------------------------------------------------|
    Ab|------------------------------------------------------------------------|
    Eb|-8---8------8---8-----8---8-----8---8-----------------------------------|
    
    eb|-------3---------3--------3---------3---------3--------3---------5------|
    Bb|---------3---------3--------3---------3---------3--------3---------3----|
    Gb|---0---------0---------0---------0---------0--------0---------0---------|
    Db|------------------------------------------------------------------------|
    Ab|-0---0-----0---0-----0---0-----0---0-----3---3----3---3-----3---3-------|
    Eb|------------------------------------------------------------------------|
    
    eb|------5---------3-------3--------3--------3---------3---------5------|
    Bb|--------3--------3--------3--------3-------3---------3----------3----|
    Gb|---0--------0--------0-------0---------0--------0--------0-----------|
    Db|---------------------------------------------------------------------|
    Ab|-3---3-----0--0----0---0----0--0-----0---0----3---3-----3--3---------|
    Eb|---------------------------------------------------------------------|
    
    when…
  • INTRO:
    e-----------------|-------------|--------------------------------------|
    B-----------------|-------------|--------------------------------------|
    G-----0-------0---|----0-----0--|-----0-------0-------0-------0----0---|
    D---4---4----4--4-|--4--4--4--4-|---4---4---4---4---4---4---4---4--4---|
    A--5-------5------|-0-----0-----|--------------------------------------|
    D-----------------|-------------|-5-------5-------5-------5--------5---|
    
    VERSE:
    e-------------------|-----------------|----------------------------------|
    B-------------------|-----------------|----------------------------------|
    G------0--------0---|-----0-------0---|-----0-------0-------0-------0----|
    D----4---4----4---4-|---4---4---4---4-|---4---4---4---4---4---4---4---4--|
    A--5--------5-------|-0-------0-------|----------------------------------|
    D-------------------|-----------------|-5-------5-------5-------5--------|
    
    CHORUS:
    e------|--------|------------|
    B------|--------|------------|
    G--77--|--7777--|--77777777--|
    D--77--|--7777--|--77777777--|
    A--55--|--7777--|--55555555--|
    D------|--------|--55555555--|
    
    OUTRO:
    e------|------|----------|
    B------|------|----------|
    G--77--|--77--|--777777--|
    D--77--|--77--|--777777--|
    A--55--|--xx--|--xxxxxx--|
    D------|--77--|--555555--|…
  • Intro/Verse
    e----------------------------------------|
    B----------------------------------------|
    G-66666666--66666666--66666666-----------|
    D-66666666--55555555--66666666-----------|  x2
    A-44444444--44444444--44444444-----------|
    E---------------------44444444-----------|
    
    Chorus
    e----------------------------------------|
    B----------------------------------------|
    G-66666666--66666666---------------------|
    D-66666666--55555555--888--666--444------|
    A-44444444--44444444--888--666--444------|
    E---------------------666--444--222------|
    
    e---------------------------------------------------|
    B---------------------------------------------------|
    G-66666666--66666666--------------------------------|
    D-66666666--55555555--88888-6666666-4444444---------|…
  • Tune down 1/2 Step (Eb Ab C# F# Bb Eb)
    
    Chords Used:
    F7M    1X3210 (Use your thumb for the low Eb string)
    Am     X02210 (Muting the low Eb is optional)
    G      320001 or 320011
    C      X32010 (Muting the low Eb is optional)
    C/B…
  • Intro
    e|-----------------------------------| --------------------------------------------|
    B|-----------------------------------| --------------------------------------------|
    G|---6-6-8-8-6-6-4-4-4-4-4-4-4-4-4-4-| --------------------------------------------|…
  • Half Step Down
    
    Intro/Verse
    |----------3------------------------------------------|
    |----------3------------------0---8/10/8----3----3--3-|
    |--7/9/7/5-5----7/9/7/5--4---4----7/9/-7---4-4---4--4-| X3
    |--7/9/7/5-5----7/9/7/5--5--5-------------5---5--5--5-|
    |----------3-------------5-5-------------5-----3-5--5-|
    |----------3--------------------0---------------------|
    
    Chorus
    
    |--3----7--5--3---5--5--|
    |--0----7--5--5---8--7--|
    |--0----7--5--5---7--7--|…
  • 0:00-0:21
    eb|---------------------------------------------------------------------|
    Bb|---------------------------------------------------------------------|
    Gb|---------------------------------------------------------------------|
    Db|---0---0---0---0---0---0---0---0---0---0---0-----0---0---0---0---0---|
    Ab|-5---5---5---5---4---4---4---4---2---2---2---------------------------|
    Db|---------------------------------------------2/5---5---5---0---0---0-|
    
    eb|-----------------|
    Bb|-----------------|
    Gb|-----------------|
    Db|---0---0---0-----|
    Ab|-----------------|
    Db|-7---7---7---7---|
    0:22-0:42
    eb|--------------------------------------------\
    Bb|--------------------------------------------\
    Gb|--------------------------------------------\
    Db|-5-5-5-5--5-5-5-5-0~7-7-7-7-7--7-7-7-0~-----\…
  • Tuning: Drop D, half step down
    
    Intro [part I]
    e|-------------------7--------------------------7---------------------------|
    B|-7p0-5h7-0--7p0-5h7---7-0---7p0-5h7-0--7p0-5h7-7-5h7-0—---(x2)------------|
    G|--------------------------------------------------------------------------|
    D|--------------------------------------------------------------------------|
    A|--------------------------------------------------------------------------|
    E|--------------------------------------------------------------------------|
    
    Intro…
  • Half Step Down, Drop Db
    
    Comes in at "Now I would span across this..."
    Verse 1:
    |--------------------------------|
    |--------------------------------|
    |----777-------------------------|      X7
    |--------9-9---7-9---------------|
    |------------9-------------------|
    |--------------------------------|
    
    
    Chorus:
    
    Chords…
  • # = quick stop
    ~ = let ring
    p = hammer on
    p = pull off
    
    
    Guitar 1 INTRO:
    |--------------------              |-3-----------------|
    |--8p4---------------              |---4-3-------------|
    |------9p3-5---------…
  • First series:
    
    E|-4-----4-4-----4-4-----4-4-----4-4-----4-4-----4-4-----4-4-----4-|
    B|---0---0---0---0---0---0---0---0---0---0---0---0---0---0---0---0-|
    G|-----2-------2-------2-------2-------2-------2-------2-------2---|
    D|-----------------------------------------------------------------|
    A|-----------------------------------------------------------------|
    E|-0-------0-------0-------0-------2-------2-------2-------2-------|
    
    "And…
  • Tuning: half step down
    
    Intro x2
    eb|---0--------0-------0-------0------0------0------0-------0-------------------|
    Bb|----1--------1-------1-------1------1------1------1-------1------------------|
    Gb|--0---0---0---0---0---0---0--0---0--0---0--0---0--0----0--0------------------|
    Db|-----------------------------------------------------------------------------|
    Ab|-3-------2-------0-----------------------------------------------------------|
    Eb|-------------------------3-------1------0------1-------3---------------------|
    
    (play…
  • (/) Slide Up  (\) Slide Down  (h) Hammer On  (p) Pull Off  (b) Bend (r) Release (v) Vibrato
    
    E|----------------------------------------|----------------------------------------|-----
    B|-----------------15--------------------O|-------8--------------------------------|-----
    G|---------12--14------14--12--14b16--12--|--7h9-----9\7---------------------------|-----
    D|--10\12---------------------------------|---------------9p7p5---------7b9--5--7--|-----
    A|---------------------------------------O|----------------------7p6p5-------------|-----
    E|----------------------------------------|----------------------------------------|-----
    
    
    
    E|----------------------------------------|----------------------------------------|--
    B|----------------------------------------|--------8--10--12--8--12b14p12------12--|--
    G|-------------------------------7--5--4--|--------------------------------14------|--
    D|---------------5---------------9--7--5--|--8--9-----10--12--9--------------------|--
    A|--------3h5h7-----7p5p3-----3-----------|----------------------------------------|--
    E|--14\6-------------------7--------------|----------------------------------------|--
    
    
    
    E|----------------------------------|----------------------------------------|--
    B|--------8--10--12--8---------5/8--|--------8--10--12--8--12b14p12------12--|--
    G|----------------------4h5p4-------|--------------------------------14------|--
    D|--8--9-----10--12--9--------------|--8--9-----10--12--9--------------------|--
    A|----------------------------------|----------------------------------------|--
    E|----------------------------------|----------------------------------------|--
    
    
    
    E|---------10---------|---------------|--14b16p12----------------------------|--
    B|--10h12--12--12p10--|--8---8--------|------------17--12--------------------|--
    G|--------------------|--7h9p7--9\12--|--------------------14b16p12------12--|--
    D|--------------------|---------------|------------------------------14------|--
    A|--------------------|---------------|--------------------------------------|--
    E|--------------------|---------------|--------------------------------------|--…
  • Intro
    eb|------------------------------------------------------|
    Bb|------------------------------------------------------|
    Gb|-------11---------11---------7--------7---------------|
    Db|----9------9----------9---------9--------9------x2----|
    Ab|-7------------7----------7---------7--------7---------|
    Db|------------------------------------------------------|
    
    Intro…
  • Tunning: Half Step Down (eb Bb Gb Db Ab Eb)
    
    
    h   - hammer on
    p   - pull
    ( ) - optional note
    ~   - let ring out
    
    
    Intro/Verse: (strumming) (x2)
    	
    eb|--0------------[4-2]------0------------0-----(0)-----------0------------
    Bb|--0------------[0-0]------0------------0------3------------0------------
    Gb|--2------------[2-2]------6------------7------2------------1------------
    Db|--2------------[2-2]------6------------7-(or)-0------------2------------
    Ab|--0------------[0-0]------4------------5------0------------2------------
    Eb|--0------------[0-0]-----(0)-----------0------0------------0------------…
  • Play with Capo on 1st fret. All chords and tabs relative to tuning.
    
    
    Chords:
    G    - 320033        F    - 133211
    D    - xx0232        G5   - 355xxx
    C    - x32030        C5   - x355xx
    Am7  - x02010        A5   - x022xx
    D/F#…
  • Tuning- Drop D
    
    
    
    e-----4-3-6-3------------|
    B-----4-4-4-4------------|
    G------------------------| Intro/Verse x28
    D------------------------|
    A------------------------|
    D------------------------|
    
    e-----4-3-4-3------------|
    B-----4-4-4-4------------|
    G------------------------|
    D------------------------|Pre-Chorus…
  • Tuning: Drop D
    
    Intro
    
    Lead
    e|-------------------------------------------------------|
    B|--------------0 0-------5------------------------------|
    G|-----7-5--7-5-4h5p0------7-----------------------------|
    D|--00-0-0--0-0--------00---7----------------------------|
    A|--55-----------------55--------------------------------|
    D|-------------------------------------------------------|
    
    Rhythm…
  • Tuning- Drop D
    
    e-----4-3-6-3------------|
    B-----4-4-4-4------------|
    G------------------------| Intro/Verse x28
    D------------------------|
    A------------------------|
    D------------------------|
    
    e-----4-3-4-3------------|
    B-----4-4-4-4------------|
    G------------------------|
    D------------------------|Pre-Chorus…
  • Intro/Verse
    
    I like to think of this as 4 different chords,
    but you are moving around your pinky alot
    
    (Chords only, not pattern) You can hear
    the pattern easily in the Intro.
    
    |--------------------------------------|
    |--------------------------------------|
    |--11---11--9-8-9---8---11--11--9------|…
  • Tuning: Standard (Capo 1)
    
       Em  Asus4 Cadd9
    e|--3----3----3----|
    B|--3----3----3----|
    G|--0----2----0----|
    D|--2----2----0----|
    A|--2----0----3----|
    E|--0----0----X----|
    
                    Em
    It's one of those…
  • Tuning: Db Ab Db Gb Bb Eb
    
    Intro: For the intro one guitar does harmonics
    and the other one goes between two chords.
    
    Gtr. 1
    ---------      --------------|
    --(7)----      --------------|
    ---------      -(5)----------|
    ---------…
  • INTRO:
    e-----------------|-------------|--------------------------------------|
    B-----------------|-------------|--------------------------------------|
    G-----0-------0---|----0-----0--|-----0-------0-------0-------0----0---|
    D---4---4----4--4-|--4--4--4--4-|---4---4---4---4---4---4---4---4--4---|
    A--5-------5------|-0-----0-----|--------------------------------------|
    D-----------------|-------------|-5-------5-------5-------5--------5---|
    
    VERSE:
    e-------------------|-----------------|----------------------------------|
    B-------------------|-----------------|----------------------------------|
    G------0--------0---|-----0-------0---|-----0-------0-------0-------0----|
    D----4---4----4---4-|---4---4---4---4-|---4---4---4---4---4---4---4---4--|
    A--5--------5-------|-0-------0-------|----------------------------------|
    D-------------------|-----------------|-5-------5-------5-------5--------|
    
    CHORUS:
    e------|--------|------------|
    B------|--------|------------|
    G--77--|--7777--|--77777777--|
    D--77--|--7777--|--77777777--|
    A--55--|--7777--|--55555555--|
    D------|--------|--55555555--|
    
    OUTRO:
    e------|------|----------|
    B------|------|----------|
    G--77--|--77--|--777777--|
    D--77--|--77--|--777777--|
    A--55--|--xx--|--xxxxxx--|
    D------|--77--|--555555--|…
  • TUning: Standard, Half Step down
    
    Intro/Verse/Chorus Chords (listen to song for timing)
    
    Eb-------------------------------------------|
    Bb-7---10---7-77-----------------------------|
    Gb-7---9----7-77-----------------------------|
    Db-7---7----7-99-----------------------------|
    Ab-5--------9-99-----------------------------|
    Eb-------------------------------------------|
    
    
    Interlude…
  • Drop Db
    
     Intro
    |------------------------------------------------|
    |------------------------------------------------|
    |--5-5-xxxx-5-5-xxxx-5-5-xxxx-5-5-5-5-5----------| X2
    |--5-5-xxxx-5-5-xxxx-5-5-xxxx-4-4-4-5-4----------|
    |--0-0-xxxx-0-0-xxxx-0-0-xxxx-0-0-0-0-0----------|
    |-----------------------------0-0-0---0----------|
    
    Verse
    
    |------------------------------|
    |------------------------------|
    |--5-5--5-5--5-5-xx-5-5--------|…
  • This song is half a step down.
    
    E?: x21000 
    C: 032010
    C?:030010
    C1:032013
    G: 320033
    D: 000232
    
     
      E?        C                 G     C
    God only knows what I would say to you.
      E?                  C…
  • Tune Down Half Step
    
    Am                                 C                                                     
     In a digital age, I'm feeling I'm done Its my brain 
                                  F…
  • It is played in Drop C but sounds fine in drop D
    
    Intro
    --------------------------------------------
    --------------------------------------------
    --10---10-|------10--12--14/--10--12--------
    --10---10-|--then-x----x---x/--x----x-------
    --8----0--|x2…
  • Key: Ab
    
    Tuning: Standard EADGBe
    
    Chords used:
    Ab - 466544
    Fm - 133111
    C# - x46664
    
    
    Intro: same with verses
              Ab                 Fm                      C#
    e|-------------------|-----------------|-----------------------------|
    B|-----4-------------|-----------------|-----------------------------|
    G|-3h5-----3---------|---1---0---------|---------------------------3-|
    D|-------------6---3-|-----------1---1-|---1---3---3---5---5---6-----|…
  • Capo 4
    
    These are not the same notes as the song, but it sounds the best on acoustic.
    
    Verse 1
    
                 G/B                 C     
    It's been a long night drinking whiskey
                 Em7          D…
  • Tuning: Half Step Down
    
    Intro/Verse
    (once for intro, twice for verse)
    eb|-3----3---3---3----3----3----3----3----3-----3----3----3-----------------|
    Bb|---3----3---3---3----3----3----3----3----3-----3----3----3---------------|
    Gb|-------------------------------------------------------------------------|
    Db|-3--3-----2----2---1---1-----0---0---------------------------------------|
    Ab|----------------------------------------3---3-----2---2------------------|
    Eb|-------------------------------------------------------------------------|
    
    (continued)
    eb|---3-----------3-----------------------------------------------------------------|
    Bb|-----3---------3-----------------------------------------------------------------|
    Gb|---------------0-----------------------------------------------------------------|
    Db|---------------0--(listen…
  • Standard tuning
    
    ~ let ring
    / slide
    x mute
    E|----------------------------------------------------|
    B|----------------------------------------------------|
    G|---------8-8-------------8-8-------------8-8--------| x5…
Наверх