Аккорды «The Monkees»

The Monkees
The Monkees — американский поп-рок-квартет, который записывался и выступал с концертами с 1966 по 1971 годы. Участники группы были впервые собраны вместе в 1965 году телеканалом NBC для съемок в телесериале о буднях современной рок-группы, образцом для которого послужил фильм The Beatles «Вечер трудного дня». Успех сериала превзошёл все ожидания, и участники The Monkees (их название означает «мартышки» — намёк на их пародийный характер) стали выпускать хит за хитом, воспроизводя самые поверхностные… Читать полностью... The Monkees — американский поп-рок-квартет, который записывался и выступал с концертами с 1966 по 1971 годы. Участники группы были впервые собраны вместе в 1965 году телеканалом NBC для съемок в телесериале о буднях современной рок-группы, образцом для которого послужил фильм The Beatles «Вечер трудного дня». Успех сериала превзошёл все ожидания, и участники The Monkees (их название означает «мартышки» — намёк на их пародийный характер) стали выпускать хит за хитом, воспроизводя самые поверхностные аспекты музыки The Beatles. Их наиболее успешные синглы — юмористический «I’m a Believer», жизнерадостный «Daydream Believer» и более серьезный «Last Train to Clarksville» — достигли первой строчки в национальных чартах продаж. Эти песни часто перепевают: например, «I'm a Believer» был исполнен Эдди Мерфи для мультфильма «Шрек» (2001). Скрыть...
Популярные аккорды The Monkees:
алфавиту | просмотрам | случайно
  • Standard Tuning
    Chorus: -------------------------------
            -------------------------------
            -------------------------------
            -------------------------------
            -------------------------------…
  • Intro		Verse
    A:--------0-2-[3-2-0-------------3-2-0---------------------------------------0]
    E:{3-3}-3-----[------3-5-2-1-0-3-------3-5-2-1-0--2-3-3-2--0-0-2-3-3-2-0-2-3--]
    (Con’t)
    A:-3-2-0---------
    E:-------3-5-2-1-
    
    {}=Play…
  • The intro to the song goes like this:
    
    (RHY FIG 1)
    -----------------------------------|---5------3-----5----3--------------
    -----------------------------------|---5------3-----5----3--------------
    -----2---0--------------------0----|---6------4-----6----4--------------
    -----------4--2----2-----0--4---4--|---7------5-----7----5--------------
    ---0---0--------0-----0------------|---7------5-----7----5--------------
    -----------------------------------|---5------3-----5----3--------------…
  • It really helps to have a smokin' keyboard on full B3 to play G G C C G on the chorus.
    The chords in the parenthesis should be covered by the keyboard, but I've played them
    on the guitar when the 'boardy was out and no one…
  • Intro:  G-D-G-D-Em-C-D-D-G
    
    Vs 1:
    
                G                    D
    There's a certain something in the way
         G        D       Em
    You looked at me and said you'd stay
          C               D             G
    That…
  • VERSE
    
    G (tacet)
    Hober reeber sabasoben
    C7 (tacet)
    Hobaseeba snick
    G (tacet)
    Seeberraber hobosoben
    G (tacet)
    What did you expect?
    
    CHORUS
    
    C7                    G
    No time, no time for you.
    D7
    I got no time, baby,
    C7…
  • INTRO: D A D A 
    
    #1.
    D        A    D              A
    Acapulco sun, leaving work undone..
    D               A                  D
    dream about the nighttime till she comes.
     A                       D
    (oooohhhh-la-la-la-la-la-la.)
    A…
  • Put capo on 4th Fret
    
    -----
    INTRO (TWO GUITARS)
    
    GUITAR ONE (CHORDS)    A          D            G    D
                           A          D            G    D
                           A          D            G    D…
  • INTRO: C F C F(x2) C F A7
    
    #1.
                F   Dm        G             C          A7
    Forget that girl...she'll only make you sad someday.
                F   Dm        G              Em   F
    Forget that girl...she'll never…
  • E            A            E            A
    When I was a young boy my mama said to me,
             E                    A
    "There's only one girl in the world for you,
        E                   A
    She probably lives in Tahiti."…
  • C                    Am               Em
         When love comes knockin' at your door
    
    F                             C
         Just open up and let 'im in
    
    B7                         Em B7  Em
         It's gonna be a magic…
  • INTRO: B A E
    
    #1.
    E
    You know my girl just called me up..and she 
                    E7
    woke me from my sleep.
        E
    You should have heard the things she said..
        E
    you know she hurt my feelings deep.…
  • SPOKEN:
    
                C     F       Bb   F      C
    There'll be birds singin' everywhere
    
            C    F       Bb      F            C
    And the wind will be blowin' through your hair
    
    
    
    SUNG:
    
         F            C
    I'll…
  • INTRO: C
    
    #1.
    C               F           C
    I'll be true to you, yes, I will.
            Fm                  G
    I'll be true to you, yes, I will.
                 Am    Em       F
    I won't look twice when the other girls…
  • #1.
    D          G              C                   G
    I wanna be free..like the bluebirds flying by me,
             C                G
    like the waves out on the blue sea.
    C                   Bm            Am…
  • Em             D               C             B7
    I know about the guy who treated you so bad
    
       Em                 D                 E      E7
    He took your love and then just walked away
    
      Am                 D7
    I…
  • Intro: A
    
    bass
    G------------------|------------------|
    D------------------|------------------|
    A--0---0---0-0---0-|--0---0---0-0---0-|
    E----0---------0---|----0---------0---|
    
    guitar
    E----------------------|----------------------|
    B-----2-3--2-3--2-0-2--|-----2-3--2-3--2-0-2--|
    G--2-------------------|--2-------------------|
    D----------------------|----------------------|
    A----------------------|----------------------|
    E----------------------|----------------------|
    
    A
    Girl,…
  • INTRO: A E A
    
    CHORUS:
    A         E               D  
    You're so good to me, I'm hooked on the 
               A
    things you do.
    A         E                   D
    You're so good to me, tell me what can I 
           A
    do for…
  • INTRO: G C
    
    #1.
    C
    People come and people go, movin' fast and 
    
    movin' slow.
        Bb                      C
    I'm in a crowd yet I'm all alone. 
    C
    The road is long the road is rough...I do…
  • INTRO: G
    
    #1.
    C        Em        F                  G
    When the world and I were young, just yesterday.
    C        Em     F                          G
    Life was such a simple game, a child could play.
           C…
  • INTRO: A D E
    
    #1.
    A              E        A
    If you think I want the life you choose to live.
                    D                    A
    I don't think I want the love you've got to give.
    D…
  • Intro :  B-Bb      G-F     Bb-C        C#-D-E-D-C#
    
    
    Verse 1 :
    
    There's a smile on the wind as it touches my face
               E                       B          E
    
    And starts to erase all the gloom
          E…
  • Intro: G C G C G C G G
    
    G               C             D
    Look out, here comes tomorrow,
    That's when I'll have to choose.
    G            C            D
    How I wish I could borrow,
    Someone else's shoes.    G C G C
    
    G        C…
  • Intro:
    
    	(banjo w/acoustic guitar [2nd bar])
    
    	 A
    	 / / / /  / / / /
    
    Verse 1:
    
    	 A     F#7
    	D. W. Washburn
    	 B7                   E7
    	I heard a sweet voice say
    	 A     F#7
    	D. W. Washburn
    	 B7…
  • INTRO: F
    
    #1.
    F
    Don't listen to Linda, she said all those 
    
    things before.
          C                     Bb         Gm7
    She's just a pretender, and though you couldn't 
    C
    love her more.
           F
    She'll lead you…
  • INTRO:
    RIFF:
    -----------------------------
    ----------------------------- 
    ----------------------0------ (x3)
    -------0-2----------0-----2---
    ---0-2-------0-2--------------
    -0---------------------------- 
    
    CHORUS:
    E…
  • Intro:
    
    	bass (w/tremolo gtr and bell tree) [4X; continue into verse]:
    
    	C#m
    	 v   v   v   v
    	-------6---------|
    	---------7-6-----|
    	-4-----------7-6-|
    	-----------------|
    
    Verse 1:
    
    	(C#m)
    	Girl, don't you…
  • v     v   v   v   v     v   v   v   v
    	-----|-----5---4-2-----|-----2-----2-----|
    	-----|-----------------|---------5-------|
    	-----|-----------------|-----------------|
    	-----|-4---------------|-4---------------|
    	---4-|---------------4-|---------------4-|
    	-----|-----------------|-----------------|…
  • E/B  B  E/B  B
    E/B  B  E/B  B
    
    B               E                      B  F#  B  F#
         You always say you like my style;
    
    B                E                     F#
         You say I'm tough and kind of wild.
    
    B…
  • G
    I'm gonna pack up all the pain,
    G
    I been keepin' in my heart,
    G
    I'm gonna catch me the fastest train
    G
    I'm gonna make me a brand new start
    C
    But that's okay,
                                                 G
    Tomorrow's…
  • A		              D
    I can tell 	by your face
    	         A		                     D
    That youre looking to find a place
           A		          G
    To settle your mind
            D          E  	
    And reveal who you are…
  • INTRO: A
    
    #1.
    D       C            D       Dm
    I never thought it peculiar, that you never 
    C         D
    gave me a smile.
    G        A        D                  G
    I wasn't socially suited, to make it worth 
         A
    your…
  • A
    You told me you'd always stay, you told me,
    
    You told me you'd never stray, you told me,
    
    D
    All these things you said you said sincerely,
    
           A
    Still, I am leaving you in spite of what you told me.
    
    I've…
  • INTRO: G Em D Em G Em
    
    #1.
    G   D   Em  D       Em       G       D
    I-I-I-I can see you when the moon is shining 
    G      
    bright.
    Bm    C        Bm       D
    I can feel you when the moon is out of sight.
    G…
  • INTRO: D
    
    #1.
    D                  Fm
    I once went with a belly dancer.
     C               D
    (lum doodly ally day)
    D
    Once around I didn't stand a chance.
     C               D
    (lum doodly ally day)
    D  F  C          D…
  • D                         C
    She, She told me that she loved me.
    And like a fool I believed her from the start.
    D                         C
    She, She said she'd never hurt me
    And then she turned around and broke my heart.
    
    D…
  • C                                  G7                C
    Just a loud-mouthed Yankee, I went down to Mexico
    
                                       G7             C
    I didn't have much time to spend, about a week or so,…
  • Tuning: EADG
    
    G|----------------------------------------------------------------|
    D|----------------3-----------3-------------------------------5---| x2
    A|3-----------3-------------------1---1-------1---------5---------|
    E|------------------------------------------------3---3-----------|
    
    0:11
    
    G|----------------------------------------------------------------|
    D|------------------------------------------------------------5---|
    A|3-----------3---0---0-------0-/-5---5-------5---------5---------|
    E|------------------------------------------------3---3-----------|
    
    G|----------------------------------------------------------------|
    D|------------------------------------------------------------5---|
    A|3-----------3-------------------1---1-------1---------5---------|
    E|----------------1---1-------1-------------------3---3-----------|
    
    G|----------------------------------------------------------------|
    D|------------------------------------------------------------5---|
    A|3-----------3---0---0-------0-/-5---5-------5---------5---------|
    E|------------------------------------------------3---3-----------|
    
    G|----------------------------------------------------------------|
    D|------------------------------------------------5---------------|
    A|0-----------0-/-5---5-------5---------------5---------5---------|
    E|--------------------------------3---------------------------3---|
    
    0:30
    
    G|----------------------------------------------------------------|
    D|------------------------------------------/-3---0---0-------0---|
    A|3-----3-2-----2-0-----0-----------------------------------------|
    E|------------------------3-----3-1-------------------------------|
    
    G|----------------------------------------------------------------|
    D|----------------5-------------------------------------------5---|
    A|------------5---------5---------3-----------3-------------------|
    E|3---------------------------3-------------------3---------------|
    
    G|----------------------------------------------------------------|
    D|------------------------------------------/-3---0-----------0---|
    A|3-------2-----2-0-----0-----------------------------------------|
    E|------------------------3-----3-1-------------------------------|
    
    G|----------------------------------------------------------------|
    D|----------------5-------------------------------5---------------|
    A|------------5---------5---------------------5---------5---------|
    E|3---------------------------3---3---------------------------3---|
    
    0:50
    
    G|----------------------------------------------------------------|
    D|------------------------------------------------------------5---|
    A|3-----------3-------------------1---1-------1---------5---------|
    E|----------------1---1-------1-------------------3---3-----------|
    
    0:55
    
    G|----------------------------------------------------------------|
    D|------------------------------------------------------------5---|
    A|3-----------3---0-----------0-/-5-----------5---------5---------|
    E|------------------------------------------------3---3-----------|
    
    G|----------------------------------------------------------------|
    D|----------------------------------------------------------5-5---|
    A|3-----------3-------------------1---1-------1---------5---------|
    E|----------------1---1-------1-------------------3---3-----------|
    
    G|----------------------------------------------------------------|
    D|------------------------------------------------5---------------|
    A|3-----------3---0---0-------0-/-5---5-----------------5---------|
    E|------------------------------------------------------------3---|
    
    G|----------------------------------------------------------------|
    D|------------------------------------------------5-----5---3-0---|
    A|0-----------0-/-5---5-------5---------------5-------------------|
    E|--------------------------------3---3---------------------------|
    
    1:15
    
    G|----------------------------------------------------------------|
    D|------------------------------------------/-3---0-----------0---|
    A|3-----3-2-----2-0-----0-----------------------------------------|
    E|------------------------3-----3-1-------------------------------|
    
    G|----------------------------------------------------------------|
    D|----------------5-----------------------------------------------|
    A|------------5---------5---------3-----------3-------------------|
    E|3---------------------------3-------------------3-----3-----3---|
    
    G|----------------------------------------------------------------|
    D|------------------------------------------/-3---0-----------0---|
    A|3-----3-2-----2-0-----0-----------------------------------------|
    E|------------------------3-----3-1-------------------------------|
    
    G|----------------------------------------------------------------|
    D|----------------5-------------------------------5---------------|
    A|------------5---------5---------------------5---------5---------|
    E|3---------------------------3---3---------------------------3---|
    
    1:35
    
    G|----------------------------------------------------------------|
    D|----------------------------------------------------------------|
    A|3-----------3---0---0-------0-/-5---5-------5-------------------|
    E|------------------------------------------------3---------------|
    
    1:40
    
    G|----------------------------------------------------------------|
    D|------------------------------------------------6---------------|
    A|4-----------4-------------------6---6-------6---------6---------|
    E|----------------6---6-------6-----------------------------------|
    
    1:45
    
    G|----------------------------------------------------------------|
    D|--------------------------------------------4-------------------|
    A|4-----4-3-----3-1-----1-------------------------6---6-------6---|
    E|------------------------4-----4-2-------------------------------|
    
    G|----------------------------------------------------------------|
    D|----------------6-------------------------------------------6---|
    A|------------6---------6---------4-----------4---------6---------|
    E|4---4-----------------------4-------------------4---------------|
    
    G|----------------------------------------------------------------|
    D|--------------------------------------------4-------------------|
    A|4-----4-3-----3-1-----1-------------------------6---6-------6---|
    E|------------------------4-----4-2-------------------------------|
    
    G|----------------------------------------------------------------|
    D|----------------6-------------------------------6---------------|
    A|------------6---------6---------------------6---------6---------|
    E|4---4-----------------------4---4---4-----------------------4---|
    
    2:03
    
    G|----------------------------------------------------------------|
    D|------------------------------------------------------------6---|
    A|4---4-------4-------------------6---6-------6---------6---------|
    E|----------------6---6-------6-------------------4---4-----------|
    
    G|----------------------------------------------------------------|
    D|------------------------------------------------------------6---|
    A|4-----------4-------------------6---6-------6---------6---------|
    E|----------------6---6---------------------------4---4-----------|
    
    G|----------------------------------------------------------------|
    D|------------------------------------------------------------6---|…
  • I play with a capo on the 7th fret, I think that sounds the best, but you can try 
    the capo around a bit to see how you like it.
    
    ----------------------------------------------------------------------------|
    --0-----1h0----------------------------------------------------1h0----------|
    ----0-------0h2---2---0-2-0----2-0------0-2-0---2-0-----0-2-0-------0h2---2-|
    -0----0---------0---0--------0------------------------------------------0---|
    ------------------------------------0-3-------3------0-2--------------------|
    ----------------------------------------------------------------------------|
    
    Repeat…
  • C               Dm
    Sometime in the morning
      Em                   Dm7    G7
    A simple thought may occur to you
               C
    And you'll hold her
    Dm   G            Em
    And tell her all the things you
         Dm    G7
         never…
  • Intro:
    
    	(Ab)                        [N.C.]
    	 v   v   v   v     v   v   v   v
    	-----------------|-----------------|
    	-----------------|-----------------|
    	-----------------|-----------------|
    	---6-46-46-46----|---6-46-6--------|
    	----6-----6------|----6--6---------|
    	-4-----4-----4---|-4-------4-------|
    
    Verse…
  • Intro:
    
      guitar (probably played in A, Capo III)
    
       C         Csus4   C         Csus2   C         Csus4   C             Csus2
       v     v   v   v   v     v   v   v   v     v   v   v   v     v   v   v   v
      -----|-----------------|-----------------|-----------------|----------------|…
  • intro:C...
                     C        D         F            C
    (piano comes in) La la la la, La la la, La la 'n da 'n da 
               C        D         F            C
    (harmonies)La la la la, La la la, La la 'n da 'n da…
  • Tuning: EADG
    
    G|----------------------------------------------------------------|
    D|----------------------------------------------------------------|
    A|----------------------------------------------------------------|
    E|3-----------3---3-----------2---0-----------0---0-------0---3---|
    
    G|----------------------------------------------------------------|
    D|----------------------------------------------------------------|
    A|----------------5-------5---------------------------------------|
    E|5-----------5---------------5---3-----------3---3-----------3---|
    
    G|----------------------------------------------------------------|
    D|----------------------------1---2-----------2-------------------|
    A|----------------2-------2-------------------------------0---2---|
    E|2-----------2-----------------------------------3---3-----------|
    
    0:16
    
    G|----------------------------------------------------------------|
    D|------------------------------------------------2-------2-------|
    A|3-----------3---3-----------3---2-----------2---------------2---|
    E|----------------------------------------------------------------|
    
    G|------------------------------------------------------------4---|
    D|------------------------------------------------2-------2-------|
    A|0-----------0---5-------5---3---2-----------2-------------------|
    E|----------------------------------------------------------------|
    
    G|--------4-------2---2-------------------------------------------|
    D|2-----------2---------------2-----------------------------------|
    A|--------------------------------0-----------0---5-------5---3---|
    E|----------------------------------------------------------------|
    
    0:32
    
    G|----------------------------------------------------------------|
    D|----------------------------------------------------------------|
    A|1-----1-1-------1-----1-1-------1-----1-1-------1-----------1---|
    E|------------------------------------------------------1-1h3---3-|
    
    G|----------------------------------------------------------------|
    D|----------------------------------------------------------------|
    A|1-----1-1-------1-----1-1-------1-----1-1-----1-1-----------1---|
    E|------------------------------------------------------1-1h3-----|
    
    G|----------------------------------------------------------------|
    D|----------------------------------------------------------------|
    A|1-----1-1-------0-----0-0---------------------------------------|
    E|--------------------------------3-----3-3-------1-----1-1-------|
    
    G|----------------------------------------------------------------|
    D|1-----1-1-------1-----1-1---------------------------------------|
    A|----------------------------0---5-------------------------------|
    E|----------------------------------------------------------------|
    
    0:52
    
    G|----------------------------------------------------------------|
    D|----------------------------------------------------------------|
    A|------------------------------------------------------------2---|
    E|3-----------3---3-----------3---3-----------3---3---3-----------|
    
    G|----------------------------------------------------------------|
    D|----------------------------------------------------------------|
    A|0-----------0---5-----------5-----------------------------------|
    E|--------------------------------3-----------3---3-----------3---|
    
    G|----------------------------------------------------------------|
    D|----------------------------1---2-----------2-------------------|
    A|----------------2-------2-------------------------------0---2---|
    E|2-----------2-----------------------------------3---3-----------|
    
    1:09
    
    G|----------------------------------------------------------------|
    D|------------------------------------------------2---------------|
    A|3-----------3---3-----------3---2-----------2---------------2---|
    E|----------------------------------------------------------------|
    
    G|----------------------------------------------------------------|
    D|----------------------------------------------------------------|
    A|0-----------0---5-------5---3---2-----------2-/-7-------7---7---|
    E|----------------------------------------------------------------|
    
    G|----------------------------------------------------------------|
    D|----------------------------7-----------7-----------------------|
    A|------------------------------------------------5-------5---3---|
    E|0-----------0---5---------------5-----------5-------------------|
    
    1:25
    
    G|----------------------------------------------------------------|
    D|----------------------------------------------------------------|…
  • C                             Dm
    In a long and involved conversation with myself
      F            Fm               C
    I saw precious things come into view
    C                                     Dm
    When I poured through…
  • Intro Riff:	[e---5--3--------------------
    B---5----5--3---------------
    G---------------5-----------
    D---------------------------
    A---------------------------
    E---------------------------]
        1  2 3  4    1 (drum fill)
    
    Am…
  • Tuning: EADG
    
    G|----------------------------------------------------------------|
    D|2-----------0---------------------------------------------------| x4
    A|------------------------4-----------4-----------3-------2-------|
    E|----------------------------------------------------------------|
    
    0:13
    
    G|----------------------------------------------------------------|
    D|2-------2-------0-------0---------------------------------------|
    A|--------------------------------4-------4-------2-------2-------|
    E|----------------------------------------------------------------|
    
    G|----------------------------------------------------------------|
    D|2-------2-------0-------0---------------------------------------|
    A|--------------------------------2-------2-----2-2---2---2---2---|
    E|----------------------------------------------------------------|
    
    G|----------------------------------------------------------------|
    D|2-------2-------0-------0---------------------------------------|
    A|--------------------------------4-------4-------2-------2-------|
    E|------------------------------------------------------------2---|
    
    G|----------------------------------------------------------------|
    D|--------------------------------------------------------1---4---|
    A|2-------2-------2---2-----------2-------2-------2---4-----------|
    E|------------2---------------2---------------2-------------------|
    
    0:24
    
    E|----------------------------------------------------------------|
    D|2-------2-------2---2-----------2-------2-------2---0-----------|
    A|--------------2-------------2-----------------2---------4---2---|
    E|----------------------------------------------------------------|
    
    G|----------------------------------------------------------------|
    D|----------------------------------------------------------------|
    A|----------------------------------------------------------------|
    E|5-------5-----0-5---5-------0---5-------5-----0-5---5-------5---|
    
    E|----------------------------------------------------------------|
    D|4-------4-------4---4-----------4-------4-------4---------------|
    A|--------------4-------------4-----------------4-----------------|
    E|----------------------------------------------------------------|
    
    G|----------------------------------------------------------------|
    D|9-----------7-----------5-----------4---------------------------|
    A|------------------------------------------------2---------------|
    E|----------------------------------------------------------------|
    
    G|------------------------------------------------|
    D|------------------------------------------------|
    A|------------------------------------------------|
    E|------------------------------------------------|
    
    0:41
    
    G|----------------------------------------------------------------|
    D|2-------2-------0-------0---------------------------------------|
    A|--------------------------------4-------4-------2-------2-------|
    E|----------------------------------------------------------------|
    
    G|----------------------------------------------------------------|
    D|2-------2-------0-------0---------------------------------------|
    A|--------------------------------2-------2-----2-2---2---2-------|
    E|----------------------------------------------------------------|
    
    G|----------------------------------------------------------------|
    D|2---------------0-------0---------------------------------------|
    A|--------------------------------4-------4-------2-------2-------|
    E|------------------------------------------------------------2---|
    
    G|----------------------------------------------------------------|
    D|----------------------------------------------------------------|
    A|2-------2-------2---2-----------2---2---2-------2---2-------2---|
    E|------------2---------------2-----------------------------------|
    
    0:52
    
    G|----------------------------------------------------------------|
    D|6---6-----------6---6-----------6---6-----------6---6-----------|
    A|------------6---------------6---------------6-------------------|
    E|----------------------------------------------------------------|
    
    G|----------------------------------------------------------------|
    D|3---3-----------3---3-----------3---3-----------3---3-----------|
    A|------------3---------------3---------------3-------------------|
    E|----------------------------------------------------------------|
    
    G|----------------------------------------------------------------|
    D|6---6-----------6---6-----------6---6-----------6---6-----------|
    A|------------6---------------6---------------6-------------------|
    E|----------------------------------------------------------------|
    
    G|----------------------------------------------------------------|
    D|3---------------3---3-----------3---3-----------3---3-----------|
    A|------------3---------------3---------------3-------------------|
    E|----------------------------------------------------------------|
    
    1:08
    
    G|----------------------------------------------------------------|
    D|8---8-----------8---8-----------8---8-----------8---8-----------|
    A|------------8---------------8---------------8---------------8---|
    E|----------------------------------------------------------------|
    
    G|----------------------------------------------------------------|
    D|8---8-----------8---8---------------8-----------8---8-----------|
    A|------------8---------------8---8-----------8-------------------|
    E|----------------------------------------------------------------|
    
    G|----------------------------------------------------------------|
    D|4---4-----------4---4-----------4---4-----------4---4-----------|
    A|------------4---------------4---------------4-------------------|
    E|----------------------------------------------------------------|
    
    G|----------------------------------------------------------------|
    D|----------------------------------------------------------------|
    A|2-------2-------2-------2-------2-------2-------2---2---2-------|
    E|------------------------------2---------------2-----------------|
    
    1:22
    
    G|----------------------------------------------------------------|
    D|2---------------0-----------------------------------------------|
    A|--------------------------------4---------------2-------2-------|
    E|----------------------------------------------------------------|
    
    G|----------------------------------------------------------------|
    D|2-------2-------0-------0---------------------------------------|
    A|--------------------------------2-------2-----2-2---2---2-------|
    E|----------------------------------------------------------------|
    
    G|----------------------------------------------------------------|
    D|2-------2-------0-------0---------------------------------------|
    A|--------------------------------------------------------2-------|
    E|------------------------------------------------------------2---|
    
    G|----------------------------------------------------------------|
    D|----------------------------------------------------------------|
    A|2-------2-------2---2-----------2-------2-------2---2---2-------|
    E|------------2---------------2---------------2-------------------|
    
    G|----------------------------------------------------------------|
    D|2-----------0---------------------------------------------------|…
  • Tuning: About 1/4th down
    
    0:04
    
    G|7-/-|
    D|----|
    A|----|
    E|----|
    
    G|12--12--12--12--12--12--12--12--10--10--10--10--10--10--10--10--|
    D|----------------------------------------------------------------|
    A|----------------------------------------------------------------|
    E|----------------------------------------------------------------|
    
    G|--------------------------------7---7---7---7---7---7---7---7-/-|
    D|8---8---8---8---8---8---8---8-----------------------------------|
    A|----------------------------------------------------------------|
    E|----------------------------------------------------------------|
    
    G|12--12--12--12--12--12--12--12\-10--10--10--10--10--10--10--10--|
    D|----------------------------------------------------------------|
    A|----------------------------------------------------------------|
    E|----------------------------------------------------------------|
    
    G|--------------------------------7---7---7---7-------7-----------|
    D|8---8---8---8---8---8---8---8---------------------7---7-0---7---|
    A|----------------------------------------------------------------|
    E|----------------------------------------------------------------|
    
    G|------------------------------------------------------------7---|
    D|5-------5-----0-5-------5---3---0-----------0---0---------7---/-|
    A|----------------------------------------------------------------|
    E|----------------------------------------------------------------|
    
    G|------------------------------------------------------------------------/-|
    D|5-----5-----5-----3-----3-----3-----3-----3-----3-----3-----3-----3-------|
    A|--------------------------------------------------------------------------|
    E|--------------------------------------------------------------------------|
    
    0:30
    
    G|12--12--12--12--12--12--12--12\-10--10--10--10--10--10--10--10--|
    D|----------------------------------------------------------------|
    A|----------------------------------------------------------------|
    E|----------------------------------------------------------------|
    
    G|--------------------------------7---7---7---7---7---7---7---7-/-|
    D|8---8---8---8---8---8---8---8-----------------------------------|
    A|----------------------------------------------------------------|
    E|----------------------------------------------------------------|
    
    G|12--12--12--12--12--12--12--12\-10--10--10--10--10--10--10--10--|
    D|----------------------------------------------------------------|
    A|----------------------------------------------------------------|
    E|----------------------------------------------------------------|
    
    G|--------------------------------7---7---7---7---------------7---|
    D|8---8---8---8---8---8---8---8-------------------0-0-0---7-------|
    A|----------------------------------------------------------------|
    E|----------------------------------------------------------------|
    
    G|------------------------------------------------------------7---|
    D|5-----------5---5---------0-3---0-----------0---0---------7---/-|
    A|----------------------------------------------------------------|
    E|----------------------------------------------------------------|
    
    G|--------------------------------------------------------------------------|
    D|5-----5-----5-----3-----3-----3-----3-----3-----3-----3-----3-----3-------|
    A|--------------------------------------------------------------------------|
    E|--------------------------------------------------------------------------|
    
    0:55
    
    G|----------------------------------------------------------------|
    D|1-------1-------1-------1-------1-------1-------1-------1---3---|
    A|----------------------------1-----------------------------------|
    E|----------------------------------------------------------------|
    
    G|----------------------------------------------------------------|
    D|5---5-------0---5---5-------0---5---5-------0---5---5-------0---|
    A|----------------------------------------------------------------|
    E|----------------------------------------------------------------|
    
    G|----------------------------------------------------------------|
    D|1-------1-------1-------1-------1-------1-------1-------1---3---|
    A|----------------------------1-----------------------------------|
    E|----------------------------------------------------------------|
    
    G|------------------------------------------------------------7-/-|
    D|5---5-------0---5---5-------0---5---5-------0---5---5-----------|
    A|----------------------------------------------------------------|
    E|----------------------------------------------------------------|
    
    1:13
    
    G|12--12--12--12--12--12--12--12\-10--10--10--10--10--10--10--10--|
    D|----------------------------------------------------------------|
    A|----------------------------------------------------------------|
    E|----------------------------------------------------------------|
    
    G|--------------------------------7---7---7---7---7---7---7---7-/-|
    D|8---8---8---8---8---8---8---8-----------------------------------|
    A|----------------------------------------------------------------|
    E|----------------------------------------------------------------|
    
    G|12--12--12--12--12--12--12--12\-10--10--10--10--10--10--10--10--|
    D|----------------------------------------------------------------|
    A|----------------------------------------------------------------|
    E|----------------------------------------------------------------|
    
    G|--------------------------------7-------7-----7-------------7---|
    D|8---8---8---8---8---8---8---8---------------7-----7-0---7-------|
    A|----------------------------------------------------------------|
    E|----------------------------------------------------------------|
    
    G|------------------------------------------------------------7---|
    D|5-----------5---5---------0-3---0-----------0---0---------7---/-|
    A|----------------------------------------------------------------|
    E|----------------------------------------------------------------|
    
    G|------------------------------------------------------------------------/-|
    D|5-----5-----5-----3-----3-----3-----3-----3-----3-----3-----3-----3-------|
    A|--------------------------------------------------------------------------|
    E|--------------------------------------------------------------------------|
    
    1:38
    
    G|12--12--12--12--12--12--12--12\-10--10--10--10--10--10--10--10--|
    D|----------------------------------------------------------------|
    A|----------------------------------------------------------------|
    E|----------------------------------------------------------------|
    
    G|--------------------------------7---7---7---7---7---7---7---7-/-|
    D|8---8---8---8---8---8---8---8-----------------------------------|
    A|----------------------------------------------------------------|
    E|----------------------------------------------------------------|
    
    G|12--12--12--12--12--12--12--12\-10--10--10--10--10--10--10--10--|
    D|----------------------------------------------------------------|
    A|----------------------------------------------------------------|
    E|----------------------------------------------------------------|
    
    G|--------------------------------7---7---7---7-------7-----------|
    D|8---8---8---8---8---8---8---8---------------------7---7-0---7---|
    A|----------------------------------------------------------------|
    E|----------------------------------------------------------------|
    
    G|------------------------------------------------------------7---|
    D|5-----------5---5---------0-3---0-----------0---0---------7---/-|
    A|----------------------------------------------------------------|
    E|----------------------------------------------------------------|
    
    G|--------------------------------------------------------------------------|
    D|5-----5-----5-----3-----3-----3-----3-----3-----3-----3-----3-----3-------|
    A|--------------------------------------------------------------------------|
    E|--------------------------------------------------------------------------|
    
    G|--------------------------------|
    D|1-------------------------------|
    A|--------------------------------|
    E|--------------------------------|…
  • Tuning: EADG
    
    G|----------------------------------------------------------------|
    D|5---5-------5-------------------5---5-------5-------------------|
    A|--------------------5---7---5-----------------------5---7---5---|
    E|----------------------------------------------------------------|
    
    G|----------------------------------------------------------------|
    D|5---5-------5-------------------5-------------------------------|
    A|--------------------5---7---5---------------------------5---7---|
    E|----------------------------------------------------------------|
    
    G|----------------------------------------------------------------|
    D|5---5-------5-------------------5---5-------5-------------------|
    A|--------------------5---7---5-----------------------5---7---5---|
    E|----------------------------------------------------------------|
    
    G|----------------------------------------------------------------|
    D|5---5-------5-------------------5-------------------------------|
    A|--------------------5---7---5---------------------------5-h-7---|
    E|----------------------------------------3---3---5-h-7-----------|
    
    0:12
    
    G|----------------------------------------------------------------|.
    D|5---5-------5-------------------5---5-------5-------------------|.
    A|--------------------5---7---5-----------------------5---7---5---|.
    E|----------------------------------------------------------------|.…
  • Tuning: EADG
    
    G|--------------|
    D|/-7---5-------|
    A|--------7-5-3-|
    E|--------------|
    
    G|----------------------------------------------------------------|
    D|--------5---5-7---5-----5---------------5---5-7---5-----5-------|
    A|0-----7---7-----------7-----7-\-0-----7---7-----------7-----7---|
    E|----------------------------------------------------------------|
    
    G|----------------------------------------------------------------|
    D|----------------------------------------5---5-7---5-----5-------|…
  • Em           D   G             A
      The King of Zor, he called for war     
      Em              D       A    B
      And the King of Zam, he answered    
      Em                   D        G        A
      They fashioned their weapons,…
  • INTRO: F C F
    
    #1.
    C            F    Bb   C           F
    Oh, tell me, love......and tell me truly,
    C        F      Bb  C          F
    do you believe......this is forever?
    C                 F    Bb C        F        Bb
    Well,…
  • A7
    She knows her mind alright your Auntie Grizelda
    She says she knows my kind, she might, maybe so
    
       D7
    Oh yeah, she's raised you right, your Auntie Grizelda
    
        A7
    You only know the things she wants you to know.
    
    
    
    E7…
  • Intro: G
    
    G
    I've been standing on the corner all day
                              G7
    Trying to think of little things to say
    C                                       G
    'Cause she walks by everyday about this time…
  • A                            Bm        C#
    
    don't wait for me, I'll be a long time coming
    
      F#m                    Bm
    
    unless by then, you have told me something
    
         Dm        E        A       
    
    that shows how…
  • Tuning: EADG
    
    
    G|--|
    D|--|
    A|/-|
    E|--|
    
    G|----------------------------------------------------------------|
    D|----------------------------------------------------------------|
    A|5-----------5-----------------/-5-----------5-----------------/-|
    E|----------------3-----------3-------------------3-----------3---|
    
    G|--------------------------------|
    D|--------------------------------|
    A|5-----------5-----------------/-|
    E|----------------3-----------3---|
    
    0:09
    
    G|----------------------------------------------------------------|
    D|----------------------------------------------------------------|
    A|5-----------5-----------------/-5-----------5-----------------/-|
    E|----------------3-----------3-------------------3-----------3---|
    
    G|----------------------------------------------------------------|
    D|----------------------------------------------------------------|
    A|5-----------5---0-----------0-/-5-----------5-----------------/-|
    E|------------------------------------------------3-----------3---|
    
    G|----------------------------------------------------------------|
    D|----------------------------------------------------------------|
    A|5-----------5-----------------/-5-----------5-----------------/-|
    E|----------------3-----------3-------------------3-----------3---|
    
    G|----------------------------------------------------------------|
    D|----------------------------------------------------------------|
    A|5-----------5---0-----------0-/-5-----------0---5---------------|
    E|--------------------------------------------------------2---3---|
    
    0:30
    
    G|----------------------------------------------------------------|
    D|----------------------------------------------------------------|
    A|0-------0-------0---0-------0---------------------------------/-|
    E|--------------------------------3-------3-------3---3-------3---|
    
    G|----------------------------------------------------------------|
    D|----------------------------------------------------------------|
    A|5-----------5---0-----------0-/-5-----------0---5---------------|
    E|--------------------------------------------------------2---3---|
    
    G|----------------------------------------------------------------|
    D|----------------------------------------------------------------|
    A|0-------0-------0---0-------0---------------------------------/-|
    E|--------------------------------3-------3-----3-3---3-------3---|
    
    G|----------------------------------------------------------------|
    D|----------------------------------------------------------------|
    A|5-----------------------------/-5-----------5-----------------/-|
    E|----------------3-----------3-------------------3-----------3---|
    
    0:51
    
    G|----------------------------------------------------------------|
    D|----------------------------------------------------------------|
    A|5-----------5-----------------/-5-----------5-----------------/-|
    E|----------------3-----------3-------------------3-----------3---|
    
    G|----------------------------------------------------------------|
    D|----------------------------------------------------------------|
    A|5-----------5---0-----------0-/-5-----------5-----------------/-|
    E|------------------------------------------------3-----------3---|
    
    G|----------------------------------------------------------------|
    D|----------------------------------------------------------------|
    A|5-----------5-----------------/-5-----------5-----------------/-|
    E|----------------3-----------3-------------------3-----------3---|
    
    G|----------------------------------------------------------------|
    D|----------------------------------------------------------------|
    A|5-----------5---0-----------0-/-5-----------0---5---------------|
    E|--------------------------------------------------------2---3---|
    
    1:13
    
    G|----------------------------------------------------------------|
    D|----------------------------------------------------------------|
    A|0-------0-------0---0-------0---------------------------------/-|
    E|--------------------------------3-------3-------3---3-----------|
    
    G|----------------------------------------------------------------|
    D|----------------------------------------------------------------|
    A|5-----------5---0-----------0-/-5-----------0---5---------------|
    E|--------------------------------------------------------2---3---|
    
    G|----------------------------------------------------------------|
    D|----------------------------------------------------------------|
    A|0-------0-------0---0-------0---------------------------------/-|
    E|--------------------------------3-------3-------3---3-------3---|
    
    G|----------------------------------------------------------------|
    D|----------------------------------------------------------------|
    A|5-----------------------------/-5-----------5-----------------/-|
    E|----------------3-----------3-------------------3-----------3---|
    
    1:35
    
    G|----------------------------------------------------------------|
    D|----------------------------------------------------------------|
    A|5-----------5-----------------/-5-----------5-----------------/-|
    E|----------------3-----------3-------------------3-----------3---|
    
    G|----------------------------------------------------------------|
    D|----------------------------------------------------------------|
    A|5-----------5---0-----------0-/-5-----------5-----------------/-|
    E|------------------------------------------------3-----------3---|
    
    G|----------------------------------------------------------------|
    D|----------------------------------------------------------------|
    A|5-----------5-----------------/-5-----------5-----------------/-|
    E|----------------3-----------3-------------------3-----------3---|
    
    G|----------------------------------------------------------------|
    D|----------------------------------------------------------------|
    A|5-----------5---0-----------0-/-5-----------0---5---------------|
    E|--------------------------------------------------------2---3---|
    
    1:56
    
    G|----------------------------------------------------------------|
    D|----------------------------------------------------------------|
    A|0-------0-------0---0-------0---------------------------------/-|
    E|--------------------------------3-------3-------3---3-------3---|
    
    G|----------------------------------------------------------------|
    D|----------------------------------------------------------------|
    A|5-----------5---0-----------0-/-5-----------0---5---------------|
    E|--------------------------------------------------------2---3---|
    
    G|----------------------------------------------------------------|
    D|----------------------------------------------------------------|
    A|0-------0-------0---0-------0---------------------------------/-|
    E|--------------------------------3-------3-------3---3-------3---|
    
    2:12
    
    G|----------------------------------------------------------------|
    D|----------------------------------------------------------------|
    A|5-----------5-----------------/-5-----------5-----------------/-|
    E|----------------3-----------3-------------------3-----------3---|
    
    G|----------------------------------------------------------------|
    D|----------------------------------------------------------------|
    A|5-----------5-----------------/-5-----------5-----------------/-|
    E|----------------3-----------3-------------------3-----------3---|
    
    G|----------------------------------------------------------------|
    D|----------------------------------------------------------------|
    A|5-----------5-----------------------5---------------------------|
    E|----------------3-------------3---------------------------------|…
  • INTRO: G
           D C G
    
    G                   C
    Fine man, crazy man, he can't see
    
    G                    C
    Sound of the sunset, sound of the sea
    
    G                       C 
    Why do the people always look at me?
    
    G…
  • INTRO: A E D E
    
    #1.
    A                       E      A
    I walk alone most every night, beneath 
                            E       D
    the stars that shine so bright, bright 
           E       A
    as the eyes of you.
    
    #2.
    A…
  • Intro:  G-D-Em-C-G-D-G  (2x)
    
    Vs. 1:
    
    G            D
      If I had a penny
    Em                          C
      For every time that I thought about you
    G               D      G
    I would be a millionaire.
    G                       D…
  • G
    Though you^?ve played at love and lost
    G
    and sorrow^?s turned your heart to frost
    C                       G
    I will melt your heart again
    
    G
    Remember that feeling as a child
    G
    When you woke up and morning smiled
    C…
  • Intro: A-C#m-Bm-E (2x)
    
    A
    I love you this year
                  C#m
    I'll love you next year
                  Bm
    And than forever
                   E
    I'll always need you
                   E5
    I'll never leave you…
  • A                C                 D
     Darkened growing figures move with prisms of no color
     most of the song is using those 3 chords
  • Tuning: 1/4 step down.
    
    0:04
    
    First recorded Version.
    
    G|------------------------------------------------------------------------------------------------|.
    D|------------------------------------------------------------------------------------------------|.
    A|3-----3-----3-----3-----3-----3-----3-----3-----5-----5-----5-----5-----5-----5-----5-----5-----|.
    E|------------------------------------------------------------------------------------------------|.…
  • Tuning: EADG
    
    G|----------------------------------------------------------------|
    D|----------------------------------------------------------------| x2
    A|3-----------3-------------------1-------------------------------|
    E|--------------------------------------------1-------------------|
    
    0:13
    
    G|----------------------------------------------------------------|
    D|------------------------------/-5-------------------------------|…
  • INTRO: Gbm
    
    #1.
    Gbm                Bm              Gbm
    And is it so, once more thou art returning?
    Gbm                Bm            Gbm
    Hast thou lost thy way as once before?
      Bm
    I warned thee more than many times,…
  • F			C#
    Once upon a once in awhile
    F			C#
    It's hard to remember to smile
    C#m			C
    Just like all of your toys
    F
    Can't you see I don't wanna play
    C#
    I don't need it
    F
    Can't you say you want me to stay
    C#
    I'll believe it
    C#m			C
    Just…
  • CHORDS:    D7 -x-    C7 -x-    G7 -3-    A7 -5-|
    -------       -3-       -1-       -3-       -5-|
                  -5-       -3-       -4-       -6-|
                  -4-       -2-       -3-       -5-|
                  -5-…
  • INTRO: A
    
    #1.
    A
    I know that something very strange is happening to my brain.
    A
    I'm either feeling very good or else I am insane.
        G                               A
    The seeds of doubt you planted have started to…
  • Intro (slow):
    
    	A        A+      F#m      Adim
    	/ / / /  / / / /  / / / /  / / / /
    	         One two  three four  five
    
    	Bm       E        Bm       E
    	/ / / /  / / / /  / / / /  / / / /
    	  Four   three    two one…
  • Intro:
    
    	Bass w/acoustic guitar [6X; horns and band enter 3rd time]
    
    	      (A)     (B)
    	 v     v   v   v   v
        -----|-----9--98--------|
        -2s--|-7---------9---79-|
        -----|-------------7----|
        -----|------------------|
    
    Verse…
  • VERSE 1:
    D                              Am          D
    With his fool's gold stacked up all around him
    
                             Am         D
    From a killing in the market on the war 
    
         A                  G…
  • Tuning: About 1/4th step down
    
    0:05
    
    G|----------------------------------------------------------------|
    D|----------------------------------------------------------------|
    A|----------------------------------------------------------------|
    E|3-----------3-----------1-------3-------------------------------|
    
    G|----------------------------------------------------------------|
    D|5---------------3---------------5---------------5---------------|
    A|----------------------------------------------------------------|
    E|----------------------------------------------------------------|
    
    0:12
    
    G|------------------------------------------------------------------------------------------------|
    D|2-----------0-----------------------------------------------------0-----5-----5-----4-----3-----|
    A|------------------3-----2-----2-----2-----0-----------------2-----------------------------------|
    E|------------------------------------------------3-----3-----------------------------------------|
    
    G|------------------------------------4-----3-----2-----0-----------------------------------------|
    D|2-----2-----0-----------------------------------------------4-----2-----0-----------------------|
    A|------------------3-----2-----2---------------------------------2-------------3-----2-----0-----|
    E|------------------------------------------------------------------------------------------------|
    
    G|------------------------------------------------------------------------------------------------|
    D|------------------0-----5-----3-----2-----0-----------------2-----5-----------------------------|
    A|------------2-----------------------------------3-----3-----------------3-----3-----2-----0-----|
    E|3-----3-----------------------------------------------------------------------------------------|
    
    G|------------------------------------------------|
    D|------------------------------------------------|
    A|------------------------------------------------|
    E|3-----------------------------------------------|
    
    G|----------------------------------------------------------------------------------------|
    D|----------------------------------------------------------------------------------------|
    A|----------------------------------------------------------------------------------------|
    E|3-----------3-----------1-------3-------------------------------------------------------|
    
    0:33
    
    G|------------------------------------------------------------------------------------------------|
    D|2-----------0-----------------------------------------------------0-----5-----5-----4-----------|
    A|------------------3-----2-----2-----2-----0-----------------2-----------------------------------|
    E|------------------------------------------------3-----3-----------------------------------------|
    
    G|------------------------------------4-----3-----2-----0-----------------------------------------|
    D|2-----2-----0-----------------------------------------------4-----2-----0-----------------------|
    A|------------------3-----2-----2---------------------------------2-------------3-----2-----0-----|
    E|------------------------------------------------------------------------------------------------|
    
    G|------------------------------------------------------------------------------------------------|
    D|------------------0-----5-----3-----2-----0-----------------2-----5-----------------------------|
    A|------------2-----------------------------------3-----3-----------------3-----3-----2-----0-----|
    E|3-----3-----------------------------------------------------------------------------------------|
    
    G|------------------------------------------------|
    D|------------------------------------------------|
    A|------------------------------------------------|
    E|3-----------------------------------------------|
    
    G|----------------------------------------------------------------|
    D|----------------------------------------------------------------|
    A|----------------------------------------------------------------|
    E|3-----------3-----------1-------3-------------------------------|
    
    0:52
    
    G|------------2-----------------------------------------------------------5-----------------------|
    D|0-----------------0-----5-----------0-----------------------5-----------------------5-----4-----|
    A|------------------------------------------------3-----------------------------------------------|
    E|------------------------------------------------------------------------------------------------|
    
    G|------------4-----------------------------0-----2-----------------------------------------------|
    D|2-----------------2-----------------2-----------------------2-----------0-----------------------|
    A|------------------------3-----------------------------------------------------------0-----3-----|
    E|------------------------------------------------------------------------------------------------|
    
    G|------------------------------------------------|
    D|0-----------------------0-----------------------|
    A|------------0-----3-----------------------------|
    E|------------------------------------------------|
    
    G|----------------------------------------------------------------|
    D|--------------------------------5---------------5---------------|
    A|----------------------------------------------------------------|
    E|----------------1-----------------------------------------------|
    
    1:08
    
    G|------------------------------------------------------------------------------------------------|
    D|2-----------0-----------------------------------------------------0-----5-----5-----4-----3-----|
    A|------------------3-----2-----2-----2-----0-----------------2-----------------------------------|
    E|------------------------------------------------3-----3-----------------------------------------|
    
    G|------------------------------------4-----3-----2-----0-----------------------------------------|
    D|2-----2-----0-----------------------------------------------4-----2-----0-----------------------|
    A|------------------3-----2-----2-----------------------------------------------3-----2-----0-----|
    E|------------------------------------------------------------------------------------------------|
    
    G|------------------------------------------------------------------------------------------------|
    D|------------------0-----5-----3-----2-----0-----------------2-----5-----------------------------|
    A|------------2-----------------------------------3-----3-----------------3-----3-----2-----0-----|
    E|3-----3-----------------------------------------------------------------------------------------|
    
    G|------------------------------------------------|
    D|------------------------------------------------|
    A|------------------------------------------------|
    E|3-----------------------------------------------|
    
    G|--------------------------------|
    D|--------------------------------|
    A|--------------------------------|
    E|3-----------3-----------1-------|
    
    1:26
    
    G|------------------------------------------------------------------------------------------------|
    D|------------------------------------------------------------------------------------------------|…
  • INTRO: D Daug (x2)
    
    #1.
    D    C#                 D     C#
    Hey, look what you have done..showing me
        Em
    the sun.
                         A
    And now it's shining through..it's nice
               D   Daug
    to be with you.
    
    #2.
    D…
  • INTRO:
    Gb                   E                  B Bbm B
    Do-day-ronde, ronde, doo-day rond, rond.
    
    #1.
    B                      E
    How old d'you say your sister was? 
     B
    (sister was, sister was?)
    B…
  • INTRO: Am
    
    #1.
    A
    I guess I should have stayed in bed, my pillow 
    
    wrapped around my head.
      Bm                           E
    Instead of waking up to find a nightmare of a 
    
    different kind.
             A   Dbm  D
    She…
  • INTRO: G7 C (x4)
    
    ---------------------------|
    ---------------------------|
    ---------------------------|RIFF:
    ---------------------------|
    ----0-2-3-3----------------|
    --3----------1-1-2-3-------|
    
    CHORUS:
    G7…
  • INTRO: G C Am7 Bm C G C 
    
    CHORUS:
    G                   C
    I got a ticket on a ferry ride.
    G                     C       G
    I got a ticket and it hurts inside.
    
    #1.
    A
    I wonder if she knows, that I don't 
           Am7…
  • INTRO: B E B E D (Wow!) E B E
    
    #1.
    D         Em
    I tell ya she's a heart breaker and you 
    E
    can't tell me she ain't..(hey, hey!)
    E         Em           E
    There's a little devil in her under all 
         A          E
    that…
  • INTRO: Bbm
    
    #1.
    Bbm
    Love's a thing that needs one to thrive on,
    
    then it grows..at least that's what I've been 
    Eb
    told.
    Bbm
    You can't love someone if you find that all 
                                        Eb
    you…
  • G7
    Ev'ry face that I see
    Is all wrapped up in frowns
    And unfortunately
    It kind of gets me down
    
    C         G 
    Laugh
    
    C               G        C        G
         'Cause the music is funny
    
    C            G…
  • INTRO: Em
    
    #1.
    Em               B        Em
    Everyone in town knew Mr. Webster.
       G                  Em
    He worked at the bank for forty years.
        A
    And each week Mr. Frizby made his check out..
        Em…
  • Tuning: EADG
    
    0:03
    
    G|--------------------------------------------------------|
    D|--------------------------------------------------------|
    A|5-----------5-----------5-----------5-----------5-------|
    E|--------------------------------------------------------|
    
    G|--------------------------------------------------------|
    D|--------------------------------------------------------|
    A|--------------------------------------------------------|
    E|--------------------------------------------------------|
    
    G|----7-----------5-----------4---------------------------|
    D|7-----------7-----------7-----------5---7---------------|…
  • Tuning: EADG
    
    G|-------------------------------------------------------------------------------------------------------------|
    D|-------------------------------------------------------------------------------------------------------------|
    A|------------------------3-----------------------5------------------------------------------------------------|
    E|3-----------------------------------------------------------------------3------------------------------------|
    
    
    0:08
    
    G|------------------------------------------------------------------------------------------------|
    D|5-----------------------7-----------------------------------7-----------5-----------------------|
    A|------------5-----------------------7-----------5-----------------------------------5-----------|
    E|------------------------------------------------------------------------------------------------|
    
    G|------------------------------------------------------------------------------------------------|
    D|5-----------------------7-----------------------7-----------------------------------7-----------|
    A|------------5-----------------------7-----------------------7-----------5-----------------------|
    E|------------------------------------------------------------------------------------------------|
    
    G|------------------------------------------------------------------------------------------------|
    D|5-----5-----------------7-----7-----------------7-----7-----------------9-----9-----------------|
    A|------------7-----7-----------------7-----7-----------------5-----5-----------------9-----------|
    E|------------------------------------------------------------------------------------------7-----|
    
    G|------------------------------------------------------------------------------------------------|
    D|------------------------7-----------------------7-----------------------5-----------------------|
    A|7-----------7---------------------7-------------------------5-----------------5-----------------|
    E|----------7-------------------------5-----------------------------------------------3-----------|
    
    G|------------------------------------|
    D|5-----------------------------------|
    A|------------------5-----------------|
    E|------------------------------------|
    
    0:40
    
    G|------------------------------------5-----------------------------------|
    D|5-----------------5-----------------------------------5-----------------|
    A|------------------------------------------------------------------------|
    E|------------------------------------------------------------------------|
    
    G|------------------------------------------------------------------------|
    D|5-----------------5-----------------------------------------------------|
    A|------------------------------------5-----------------5-----------------|
    E|------------------------------------------------------------------------|
    
    G|------------------------------------5-----------------------------------|
    D|5-----------------5-----------------------------------5-----------------|
    A|------------------------------------------------------------------------|
    E|------------------------------------------------------------------------|
    
    G|------------------------------------------------------------------------|
    D|5-----------------------------------5-----------------------------------|
    A|------------------5-----------------------5-----2-----------------------|
    E|------------------------------------------------------3-----------------|
    
    1:01
    
    G|------------------------------------------------------------------------------------------------|
    D|5-----------------------7-----------------------------------7-----------5-----------------------|
    A|------------5-----------------------7-----------5-----------------------------------5-----------|
    E|------------------------------------------------------------------------------------------------|
    
    G|------------------------------------------------------------------------------------------------|
    D|5-----------------------7-----------------------7-----------------------------------7-----------|
    A|------------5-----------------------7-----------------------7-----------5-----------------------|
    E|------------------------------------------------------------------------------------------------|
    
    G|------------------------------------------------------------------------------------------------|
    D|5-----5-----------------7-----7-----------------7-----7-----------------9-----9-----------------|
    A|------------7-----7-----------------7-----7-----------------5-----5-----------------9-----------|
    E|------------------------------------------------------------------------------------------7-----|
    
    G|------------------------------------------------------------------------------------------------|
    D|------------------------7-----------7---------------------7-------------5-----------------------|
    A|7-----------7---------7-------------------------------------5-----------------5-----------------|
    E|------------------------------------------------5-----------------------------------3-----------|
    
    G|------------------------------------|
    E|5-----------------------------------|
    A|------------------5-----------------|
    E|------------------------------------|
    
    1:35
    
    G|------------------------------------5-----------------------------------|
    D|5-----------------5-----------------------------------5-----------------|
    A|------------------------------------------------------------------------|
    E|------------------------------------------------------------------------|
    
    G|------------------------------------------------------------------------|
    D|5-----------------5-----------------------------------------------------|
    A|------------------------------------5-----------------5-----------------|
    E|------------------------------------------------------------------------|
    
    G|------------------------------------5-----------------------------------|
    D|5-----------------5-----------------------------------5-----------------|
    A|------------------------------------------------------------------------|
    E|------------------------------------------------------------------------|
    
    G|------------------------------------------------------------------------------|
    D|5-----------------------------------5-----------------------------------------|
    A|------------------5-----------------------5-----2-----------------------------|
    E|------------------------------------------------------3-----------------------|
    
    1:56
    
    G|------------------------------------5-----------------------------------|
    D|5-----------------5-----------------------------------5-----------------|
    A|------------------------------------------------------------------------|
    E|------------------------------------------------------------------------|
    
    G|------------------------------------------------------------------------|
    D|5-----------------5-----------------------------------------------------|
    A|------------------------------------5-----------------5-----------------|
    E|------------------------------------------------------------------------|
    
    G|------------------------------------5-----------------------------------|
    D|5-----------------5-----------------------------------5-----------------|
    A|------------------------------------------------------------------------|
    E|------------------------------------------------------------------------|
    
    G|------------------------------------------------------------------------|
    D|5-----------------------------------5-----------------------------------|
    A|------------------5-----------------------5-----2-----------------------|
    E|------------------------------------------------------3-----------------|
    
    2:18
    
    G|------------------------------------------------------5-----------------|
    D|------------------4-----------------5---\-3---/-5-----------------------|
    A|------------------------------------------------------------------------|
    E|------------------------------------------------------------------------|
    
    G|5-----------------5-----------------------------------7-----5-----------|
    D|------------------------------------5-----------------------------7-----|
    A|------------------------------------------------------------------------|
    E|------------------------------------------------------------------------|
    
    G|------------------------------------5-----------------------------------|
    D|5-----------------5-----------------------------------5-----------------|
    A|------------------------------------------------------------------------|
    E|------------------------------------------------------------------------|
    
    G|------------------------------------|
    D|5-----------------------------------|…
  • Tuning: EADG
    
    G|------|
    D|------|
    A|------|
    E|7-\---|
    
    G|------------------------------------------------------------------------------------------------|
    D|------------------------------------------------------------------------------------------------|…
  • INTRO:RIFF:(x2)
    ----------------------------------------------|
    ----------------------3------3----------------|
    ------------------------0-2-------------------|
    ----2-----0---------0-------------------------|
    ------0-2-------------------------------------|
    --0-------------------------------------------|
    
    #1.
    E…
  • Am
    Here we come, walkin' 
             F
    Down the street.
                         D
    We get the funniest looks from 
                  G
    Every one we meet.
    
    
    [chorus]
                          C    C7
    Hey, hey, we're the Monkees…
  • Tuning: EADG
    
    G|----------------------/-9-------/-9-----7-----------------------------/-9-------/-9-----7-------|
    D|----------/-9-----------------------------9---------------/-9-----------------------------9-----| x3
    A|7-----------------------------------------------7-----------------------------------------------|
    E|------------------------------------------------------------------------------------------------|
    
    G|------------------------------------------------------------------------------------------------|
    D|7-----------------------7-------/-7-----5-----------------------------/-7-----------------------|
    A|------------7-----------------------------7-----------------7---------------------5-5-----6-----|
    E|------------------------------------------------5-----------------------------------------------|
    
    G|----------------------/-9-------/-9-----7-----------------------------/-9-------/-9-----7-------|
    D|----------/-9-----------------------------9---------------/-9-----------------------------7-----|
    A|7-----------------------------------------------7-----------------------------------------------|
    E|------------------------------------------------------------------------------------------------|
    
    G|------------------------------------------------------------------9-----------12----------------|
    D|9---------------------/-9-------/-9-----7-------7-----------------------------------------------|
    A|------------9-----------------------------9-----------------7-----------10----------------------|
    E|------------------------------------------------------------------------------------------------|
    
    G|----------------------------------------------/-9-------/-9-------------------------------------|
    D|------------------5---------------/-9-----------------------------7-/---9-----9-----9-----9-----|
    A|------------5-----------7-----------------------------------------------------------------------|
    E|------7-----------------------------------------------------------------------------------------|
    
    G|------------------------|
    D|9-----9-----------------|
    A|------------5-----6-----|
    E|------------------------|
    
    0:37
    
    G|----------------------/-9-------/-9-----7-----------------------------/-9-------/-9-----7-------|
    D|----------/-9-----------------------------9---------------/-9-----------------------------9-----|…
  • The intro riff to this song is simple arpegging, in the first position G chord:
    
    -----------------------|----------------|------------------------------------
    -----------------------|----------------|------------0-----0-----------------
    ------0----------------|----0-----------|----0-----0-----0-------------------
    ----------3---2---0----|------3--2--0---|--------3-----2-----0---------------…
  • Opening riff :
    
        B  Bb A  Ab G   Gb F  E  A
    |---7--6--5--4--3---2--1--0--0---|
    |---7--6--5--4--3---2--1--0--2---|
    |---8--7--6--5--4---3--2--1--2---|
    |---9--8--7--6--5---4--3--2--2---|
    |---9--8--7--6--5---4--3--2--0---|
    |---7--6--5--4--3---2--1--0------|
    
    
    
    B…
  • INTRO: E Am E..Abm7 Gbm
    
    #1.
    E                     Am
    When your dreams have died around you,
    E               Abm7 Gbm
    she'll be there.
    E               Am                 E
    When you need a hand to guide you, she'll…
  • G            F   C           D  G            F  C            D
    ---------------------------------------------------------------|
    ---------------------------------------------------------------|
    ---------------------------------------------------------------|
    ---------0-2-3-----------0-2-0-----------0-2-3-----------0-2-0-|
    ---0h2h3---------3-0h2h3-----------0h2h3---------3-0h2h3-------|
    -3-------------------------------3-----------------------------|
    
    G…
  • Intro:  B Bb A
    	  B Bb A
    
    G       D           Em
    Hey Hey mercy woman plays a song and no one listens,
    G 		    D       G
    I need help I'm falling again
    G		    D
    Play the drum a little louder
    Em
    Tell me I can live without her
    G…
  • Intro 
    C  C  C  C
    
    
    C             Dm
    Love to me is blue-eyed and blonde
    
    F          G     C
    Oh, that's sweet Magnolia
    
    C                Dm
    Apple pie on the window still warm
    
    F         G     C       
    That's…
Наверх