Аккорды «The Starting Line»

The Starting Line
Американская поп-панк группа The Starting Line cформировалась летом 1999 года в пригороде города Филадельфия, штат Пенсильвания. В составе группы: Кенни Васоли - бас-гитара и вокал, Мэтт Уоттс - гитара и бэк-вокал, Майкл Голла - гитара, Том Грайскивиц - ударные. Изначальное название группы - Sunday Drive - оставалось за квартетом до 2000 года, когда вышла первая пластинка "With Hopes of Starting Over", которая несомненно явилась успехом. Заключив контракт с Drive-Thru Records в апреле 2001… Читать полностью... Американская поп-панк группа The Starting Line cформировалась летом 1999 года в пригороде города Филадельфия, штат Пенсильвания. В составе группы: Кенни Васоли - бас-гитара и вокал, Мэтт Уоттс - гитара и бэк-вокал, Майкл Голла - гитара, Том Грайскивиц - ударные. Изначальное название группы - Sunday Drive - оставалось за квартетом до 2000 года, когда вышла первая пластинка "With Hopes of Starting Over", которая несомненно явилась успехом. Заключив контракт с Drive-Thru Records в апреле 2001 года, The Starting Line получили билет на поп-панк сцену - TSL начали выступать с такими группами, как The Movielife, New Found Glory, Midtown: в течение 2001 и 2002 годов группа объездила всю страну вместе Drive-Thru и Vans Warped Tour. В 2002 году выходит первый лонгплей группы - "Say It Like You Mean It" - альбом, который сделал группу невероятно знаменитой. TSL появлялись на всех музыкальных телеканалах, а песня "The Best of Me" - стала хитом. The Starting Line также появились на сборниках V/A Punk Goes Pop, Punk Goes 90's с их неповторимым звучанием. Альбом 2005 года, "Based on a True Story", существенно отличался по звуку от предыдущих записей, он был наполнен роком. Как писал Кенни в своём блоге: "Я повзрослел, отрастил волосы, стал опытнее, - вместе с этим изменилась музыка. Я пишу то, что чувствую. Если вам не нравятся эти строки в песне "Bedroom Talk" (там была описана сцена секса), то уж извините". Таким образом, их стиль из поп-панка перешёл в заводной рок, включающий в себя и грустные, до этого не знакомые слушателю, песни. Альбом "Direction" 2007 года удивил и огорчил фанатов группы одновременно. Группа углубила своё рок-звучание, а о поп-панке забыла окончательно. Кенни Васоли снова удивил всех, завив роскошные кудри. Остальные участники группы лишь стали выглядеть намного взрослее. Клип на песню "Island" широко транслируется по MTV, FUSE, и по другим каналам музыкального направления. Группа объявила о том, что до 2011 года выступлений The Starting Line не планируется, так как музыкантам необходимо время, чтобы отдохнуть друг от друга и приступить к новым песням, - но, к сожалению, распад группы уже виднеется на горизонте. Скрыть...
Популярные аккорды The Starting Line:
алфавиту | просмотрам | случайно
  • INTRO/CHORUS
    
     
     G|------------------------------------------------------------------------
     D|------------------------------------------------------------------------   X2
     A|--------------------2-22-44-4-4-------------44-4--222-------------------…
  • ~ - let ring out
    h - hammer on
    p - pull off
    ... - palm mute
    /  - slide
    7x
    x   - mute after strumming
    5x
    x
    x - scratching
    x
    
    GUITAR 1'S PARTS:
    -----------------
    Intro:
    e|---------------------------------------------------------------------------|
    B|---------------------------------------------------------------------------|
    G|7~-----------------------7~----------------------12-11-7x------------------|
    D|7~-----------------------7~-----------------------x--x-x-------------------|
    A|5~-----------------------5~----------------------10--9-5x------------------|
    E|---------------------------------------------------------------------------|
    
    Intro…
  • * - let ring
    / - slide up
     - slide down
    h - hammer on
    p - pull off
    
    Intro x3                Intro p. 2 x1  
    G-------------------    G----------------
    D-------------------    D----------------
    A-22----------------    A--22------------
    E----0--4--2--------…
  • > = SLIDE 
    P = PULL OFF 
    H = HAMMER 
    
    
    e|--3------------------------------------------------------------------------| 
    B|--3------------------------------------------------------------------------| 
    G|--0----8-777-8-10-12H-10-7-8-7>8-----------------------------3------------------|…
  • This song is pretty simple dropped D-D A D G B e
    both guitars are dropped D
    This is the riff played in the verses
    
    |------------------------0-----------------|
    |--------9------9--------------------------|
    |------9------9-------9--------------------|
    |----7------7-------7----------00000000----|
    |--0------9--------------------00000000----|…
  • .=palm mute
     x=pickslide
    
    
    Gtr.1
    e----------------------------------------------------------
    B----------------------------------------------------------
    G----------------------------------------------------------
    D-22----------------22-------------------------------------
    A-22----------------22------------------xxxxxxxxxxxxxxxx---…
  • Cadd9 032030
    C2        032310
    
    the starting line   (covering: j-lo and ja-rule)
    accoustic version
    
    I'M REAL
    
    
    C            Cadd9            C           C2  (repeat throughout verses)
    
    		C
    (What's my name?)   R-U-L-E
    Cadd9
    (layin'…
  • Standard Tuining  ~ = let ring
    
    
    
    Intro guitar 1
    |------------------|
    |------------------|
    |--9--2--7--9--2~--|
    |-11--4--7--7--2~--|
    |--0--0--5--9--0~--|
    |--0--0--0--0--0~--|
                   same......................
    
    Intro…
  • standard tuning: eBGDAE
    ... : palm mute
    
    intro:
    e|-----------------------------------------------------------------|
    B|-----------------------------------------------------------------|
    G|--111111111111-999999-888888-666666-88888-44444-111111111-66666--|
    D|---x-x-x-x-x-x-xxxxxx-xxxxxx-xxxxxx-xxxxx-xxxxx-x-x-x-x-x-xxxxx--|
    A|---9-9-9-9-9-9-777777-666666-444444-66666-22222-9-9-9-9-9-44444--|…
  • Intro
    
    E----------------------------------------
    B----------------------------------------
    G---7---7---7---7---7--------------------
    D---7---7---7---7---7--------------------
    A---x---5---7---x---5--------------------
    E---7---5-------7------------------------
    
    Verse…
  • INTRO
    
    1st Guitar
    e------------------
    B------------------
    G------------------
    D------------------
    A---3333333333333--
    E------------------
    
    Rest of the band joins in...
    
    G   F
    
    1st Guitar
    e-----------------------------------------
    B-----------------------------------------
    G-----------------------------------------
    D-------------2-2h3p2-33h5-5-5--------2-2-
    A---33-3-3-5-5----------------33h5-5------
    E-----------------------------------------
    2nd…
  • Intro
    e|---------------------------------------------------------------------------|
    B|---------------------------------------------------------------------------|
    G|-----7-5-------------------------------------------------------------------|
    D|-5-2-7-5-------------------------------------------------------------------|
    A|-5-2-5-3-------------------------------------------------------------------|
    E|-3-0-----------------------------------------------------------------------|
    Verse
    e|---------------------------------------------------------------------------|
    B|---------------------------------------------------------------------------|
    G|-----7-5-------------------------------------------------------------------|
    D|-5-2-7-5-------------------------------------------------------------------|
    A|-5-2-5-3-------------------------------------------------------------------|
    E|-3-0-----------------------------------------------------------------------|
    
    e|---------------------------------------------------------------------------|
    B|---------------------------------------------------------------------------|
    G|---------------------------------------------------------------------------|
    D|-7-5-10-12-----------------------------------------------------------------|
    A|-7-5-10-12-----------------------------------------------------------------|
    E|-5-3-8--10-----------------------------------------------------------------|
    Chorus
    e|---------------------------------------------------------------------------|
    B|---------------------------------------------------------------------------|
    G|---9-----------------------------------------------------------------------|
    D|-5-9-10-12-----------------------------------------------------------------|
    A|-5-7-10-12-----------------------------------------------------------------|
    E|-3---8--10-----------------------------------------------------------------|
    Bridge
    e|---------------------------------------------------------------------------|
    B|---------------------------------------------------------------------------|
    G|---------------------------------------------------------------------------|
    D|-5-9-12-14-----------------------------------------------------------------|
    A|-5-9-12-14-----------------------------------------------------------------|
    E|-3-7-1012------------------------------------------------------------------|
    
    Its…
  • Intro:
    G|--------------------------------------------------------------------|
    D|-555-000-222-----555-000-222--------000-222--------000-222----------|
    A|-------------333-------------333------------333------------333-33-33|
    E|---------------------------------33-------------33------------------|
    
    Verse…
  • Intro - A F# A F#
    
    A                              F#
    Last call everybody step up for another
    A                                                  F#
    They’re ringing the bell as you yell to the crowd that’s behind you…
  • Intro
    e|-10-----------------------------------------------------------------------|
    B|---10--8-7--7-------------------------------------------------------------|
    G|-----------7--------------------------------------------------------------|
    D|--------------------------------------------------------------------------|
    A|--------------------------------------------------------------------------|
    E|--------------------------------------------------------------------------|
    
    e|--------------------------------------------------------------------------|
    B|--------------------------------------------------------------------------|
    G|--------------7-9-7-12-11-14-12-11-12--11-7-9-----------------------------|
    D|-12-7-10-5-x4-x-x-x-x--x--x--x--x--x---x--x-x-----------------------------|
    A|-12-7-10-5----5-7-5-10-9--12-10-9--10--9--5-7-----------------------------|
    E|-10-5-8--3----------------------------------------------------------------|
    Verse
    e|--------------------------------------------------------------------------|
    B|--------------------------------------------------------------------------|
    G|----9/7-------------------------------------------------------------------|
    D|-12-9/7-7-10-5------------------------------------------------------------|
    A|-12-7/5-7-10-5------------------------------------------------------------|
    E|-10-----5-8--3------------------------------------------------------------|
    Chorus
    e|--------------------------------------------------------------------------|
    B|--------------------------------------------------------------------------|
    G|--------7-7-----------10--7-8-7-------------------------------------------|
    D|-5-12-7-7-7-5-12-7--------------------------------------------------------|
    A|-5-12-7-5-5-5-12-7--------------------------------------------------------|
    E|-3-10-5-----3-10-5--------------------------------------------------------|
    Bridge
    e|--------------------------------------------------------------------------|
    B|--------------------------------------------------------------------------|
    G|--------------------------------------------------------------------------|
    D|-2--5--9-5--2-5--9-5------------------------------------------------------|
    A|-2--5--9-5--2-5--9-5------------------------------------------------------|
    E|-0--3--7-3--0-3--7-3------------------------------------------------------|…
  • Intro
    e|---------------------------------------------------------------------------|
    B|---------------------------------------------------------------------------|
    G|-4--4-4-4~~-11-11-11-13-11-8-6-8-9-8-11-13-11-8-9-6-4-6-8-4----------------|
    D|-4--4-4-4~~----------------------------------------------------------------|
    A|-2--2-2-2~~----------------------------------------------------------------|
    E|---------------------------------------------------------------------------|
    
    e|---------------------------------------------------------------------------|
    B|---------------------------------------------------------------------------|
    G|-11-11-11-13-11-8-6-8-9-8-6-8-4~~~~----------------------------------------|
    D|---------------------------------------------------------------------------|
    A|---------------------------------------------------------------------------|
    E|---------------------------------------------------------------------------|
    Verse
    e|------x--------------------------------------------------------------------|
    B|------x--------------------------------------------------------------------|
    G|-4-4--x-4-4--6-6-----------------------------------------------------------|
    D|-4-4--x-4-4--6-6--6-6--2-2-------------------------------------------------|
    A|-2-2--x-2-2--4-4--6-6--2-2-------------------------------------------------|
    E|------x-----------4-4--0-0-------------------------------------------------|
    Chorus
    e|---------------------------------------------------------------------------|
    B|---------------------------------------------------------------------------|
    G|--4-4--6-6-----------------------------------------------------------------|
    D|--4-4--6-6-6-6-2-6-4-------------------------------------------------------|
    A|--2-2--4-4-6-6-2-6-4-------------------------------------------------------|
    E|-----------4-4-0-4-2-------------------------------------------------------|…
  • e-----------------------------------------------------------
    B----7-7P5-8-8-8/7-5-7------------7--5H7P5------------------
    G---7-----7-7----------(5X)------7--------7----(1X)---------
    D-----------------------------------------------------------
    A-----------------------------------------------------------
    E-----------------------------------------------------------
    
    e-----------------------------------------------------------
    B-----------------------------------------------------------
    G-7-6-6-7-6---6H7-------------------------------------------
    D----7------7-----------------------------------------------
    A-----------------------------------------------------------
    E-----------------------------------------------------------
    
    
    Chorus…
  • Intro: (Guitar 1) Plays this progression throughout song
    e:----------------------------------------------------------------
    B:----------------------------------------------------------------
    G:---4~-----------------------------------------------------------
    D:---4~----2~----6~---4~------------------------------------------
    A:---2~----2~----6~---4~------------------------------------------
    E:---------0~----4~---2~------------------------------------------
    
    e:----------------------------------------------------------------
    B:--------4h5p4-----4h5p4------4h5p4/7/5p4h5p4--------------------
    G:---4-4--------4-4-----------------------------------------------
    D:---4-4--------4-4--------2-2--2-2-------------------------------
    A:---2-2--------2-2--------2-2…
  • (Intro) 
    
     Guitar 1
    e|------------------------------------| 
    B|------------------------------------| 
    G|--------4--let ring-----------------| 4x
    D|---2-h4-----------------------------| 
    A|------------------------------------|…
  • Tuning:standard
    Intro:
    e|--------------11----------11--------------------------------|
    B|-----12----------12----12----12---A Bunch OF Times ---------|
    G|---11--11-----------11--------------------------------------|
    D|------------------------------------------------------------|
    A|------------------------------------------------------------|
    E|------------------------------------------------------------|
    Verse:…
  • DROP D
    Guitar 1
    
    Intro
    E-----------------------------------
    B-----------------------------------
    G-----------------------------------
    d-55555555-77777777-9999999999999999
    A-33333333-55555555-7777777777777777
    D-----------------------------------…
  • h=hammer
    p=pull off
    /=slide
    u=strum up
    d=strum down
    
     (0:25)|(1:03)                                                       (1:40)
    e|--3--|---------------------------------------------------------3---|--3--|
    B|--3--|--8h10-8-10h12-12-12-10-8-8-8p7--------------------------3---|--3--|
    G|--0--|--------------------------------7/9-7-5-4h5-4-00---------0---|--0--|
    A|--0--|-------------------------------------------------0h2-5---0---|--0--|
    D|--2--|---------------------------------------------------------2---|--2--|
    E|--3--|---------------------------------------------------------3---|--3--|…
Наверх