Аккорды «The Stooges»

The Stooges
The Stooges — американская рок-группа, фронтменом которой является Игги Поп. The Stooges играли гаражный рок и т. н. прото-панк. Их ранние альбомы оказали большое влияние на развитие панк-рока и альтернативной музыки. Группа была основана Игги Попом (вокал) с бас-гитаристом Дэйвом Александром и братьями Роном (гитара) и Скоттом Эштонами (ударные). Концертный дебют состоялся в хеллоуин 1967 года в Университете Мичигана. Тогда Stooges выступали под названием Psychedelic Stooges, и играла на разогреве… Читать полностью... The Stooges — американская рок-группа, фронтменом которой является Игги Поп. The Stooges играли гаражный рок и т. н. прото-панк. Их ранние альбомы оказали большое влияние на развитие панк-рока и альтернативной музыки. Группа была основана Игги Попом (вокал) с бас-гитаристом Дэйвом Александром и братьями Роном (гитара) и Скоттом Эштонами (ударные). Концертный дебют состоялся в хеллоуин 1967 года в Университете Мичигана. Тогда Stooges выступали под названием Psychedelic Stooges, и играла на разогреве у таких групп, как MC5. Одноимённый дебютный альбом «The Stooges» продюсировал Джон Кейл из Velvet Underground. Альбом вышел в 1969 году и занял 106 место в хит-параде США. В следуюшем году вышел второй альбом «Fun House», записанный немного изменённым составом. Тогда же началась тенденция к распаду группы, связанная не в последнюю очередь с поголовным злоупотреблением наркотиками, в чём особенно отличился Игги Поп. Вскоре после записи второго альбома группу покинул Дэйв Александр, умерший в 1975 году от пневмонии на фоне алкоголизма[1]. В 1972 году группа практически распалась. В том же 1972-м Игги познакомился и подружился с Дэвидом Боуи. Боуи пригласил двоих участников Stooges — Игги и Джеймса Уильямсона — в Великобританию, и обеспечил им контракт с Columbia Records. Была предпринята попытка возродить The Stooges с британскими музыкантами, но не найдя подходящих людей, в группу были возвращены братья Эштоны. В таком составе, под названием Iggy & The Stooges, они записали свой последний (до воссоединения в 2000-х) альбом «Raw Power» (1973). Несмотря на отсутсвие коммерческого успеха в то время, «Raw Power» стал один из основных альбомов прото-панка, во многом определив дальнейшее развитие стиля. Группа окончательно распалась в 1974 году. В 1976 году Игги Поп начал успешную сольную карьеру. Братья Эштоны основали группу The New Order (не путать с британской группой New Order). После почти 30-ти лет перерыва The Stooges воссоединились в 2002 году под названием Iggy and the Stooges. В новый состав вошли Игги Поп, братья Эштоны и басист Майк Уотт (Minutemen, Firehose). В марте 2007 года вышел студийный альбом «The Weirdness», спродюсированный Стивом Альбини. 6 января 2009 года Рон Эштон был найден мертвым в своем доме, находящимся в Анн-Арборе The Stooges были введены в Зал Славы Рок-н-ролла 15 марта 2010 года. Альбомы * 1969: The Stooges * 1970: Fun House * 1973: Raw Power * 1976: Metallic K.O. — запись последнего концерта The Stooges в «Michiganpalace», Детройт * 2007: The Weirdness Скрыть...
Популярные аккорды The Stooges:
алфавиту | просмотрам | случайно
  • Tuning:standard
    
    e|---------------------------------------------------------------------------|
    B|---------------------------------------------------------------------------|
    G|------------9--------------------------------------------------------------|
    D|-2----------9----x8--------------------------------------------------------|
    A|-2--x7------7--------------------------------------------------------------|
    E|-0-------------------------------------------------------------------------|
    
    Verse
    e|---------------------------------------------------------------------------|
    B|---------------------------------------------------------------------------|
    G|---------------------------------------------------------------------------|
    D|--12-12-12-12-11-11-11-11--9-9-9-9-9-9-------------------------------------|
    A|--10-10-10-10-9--9--9--9---7-7-7-7-7-7-------------------------------------|
    E|---------------------------------------------------------------------------|
    
    The…
  • e|------------------------------------------------------
    B|-5---reapeat------------------------------------------
    G|-x---8-times------------------------------------------
    D|-7----------------------------------------------------
    A|------------------------------------------------------
    E|------------------------------------------------------…
  • wah intro then it follows the guitar
    G:---------------------------
    D:---------------------------
    A:------------3------------3-
    E:-5-3-5-5p3-5--5-3-5-5p3-5--
    
    after doin' that a couple times it goes higher like this
    
    G:---------------------------
    D:------------3------------3-
    A:-5-3-5-5p3-5--5-3-5-5p3-5--
    E:---------------------------…
  • G--------------------------------------|
    |
    D--------------------------------------|
    |                                       repeat as necessary
    A-----------------------------55-3-5-55|
    |
    E-55-3-5-55--55-3-5-55-55-3-55---------|…
  • on the intro just thump the 5th fret on the E
    
    G---------------------|
    |
    D---------------------|
    |
    A-------3-3-5^---3-3-3|
    |
    E-5-5-5--5----5-5-----|
    
    symbols: ^-bend up
    
    
    
  • G------------------------------------------------5-----
    D------------7--7---------------------------5----------
    A---------------------------5-----7--------------------
    E------------------------------------------------------
    
    REPEAT...…
  • G-----4-------4-3-2-----------4------4-3-2--
    D-2-2---2-2-2-------2p0h2-2-2---2-2-2-------
    A-------------------------------------------
    E-------------------------------------------
     
    
  • Intro:
    |-5-----------4--------|-5----4--4--4--4----|-5-----------4----|
    |-5-----------5--------|-5----5--5--5--5----|-5-----------5----|
    |----------------------|--------------------|------------------|
    |----6--6--6-----------|--------------------|----6--6--6-------|
    |----------------------|--------------------|------------------|
    |----------------------|--------------------|------------------|…
Наверх