Аккорды The Teens - Gimme, Gimme, Gimme, Gimme, Gimme Your Love

Добавлено: @romashka
Дата добавления: 17 Июня 2024г.
Рейтинг:
0.0
Просмотров: 16
Tuning:Standard

Key:A

[Intro]

e|--------------------5-----------------------5----|
B|--2-2-2-------3-----------2-2-2-------3----------|
G|--2-2-2----6-----6--------2-2-2----6-----6-------|
D|--2-2-2-------------------2-2-2------------------|
A|--0-0-0-------------------0-0-0------------------|
E|-------------------------------------------------|

[Verse]

 A
Saturday morning when school was over
 A
I went to the phone and I wanted to call her
            D                 E                A
And I said: gimme gimme gimme gimme gimme your lovin'
 A
But her daddy said: listen baby
 A
You are too young to forget him and wait
 A
Till time has come to
 D
Forget about that
 D          E                        A
Gimme gimme gimme gimme gimme your lovin'
 F#
But nobody knows what's goin' on in my heart
     D
They all tell me
 D
we are too young for a start
 D
So what can I do
 D
so what can I do
   E
So listen to my song I'm gonna sing it for you

 [Refrain]

 A                       D
Gimme gimme gimme gimme gimme your love
      E                A
i got heartache number one
 A                       D
Gimme gimme gimme gimme gimme your love
      E                             A    D  E
And I really really really can't go on
 A                      D
Gimme gimme gimme gimme gimme your love
      E                A
I got heartache number one
 A                      D
Gimme gimme gimme gimme gimme your love
      E                             D
And I really really really can't go on
         E
Can't go on

N.C

Can't go on

e|--------------------5-----------------------5----|
B|--2-2-2-------3-----------2-2-2-------3----------|
G|--2-2-2----6-----6--------2-2-2----6-----6-------|
D|--2-2-2-------------------2-2-2------------------|
A|--0-0-0-------------------0-0-0------------------|
E|-------------------------------------------------|

 [Verse]

 A
On saturday night when everybody's dancing
 A
I went to the phone and said:
 A
It's good for romancing. I said:
 D                E                  A
Gimme gimme gimme gimme gimme your lovin'
 A
But my daddy said: son
 A
you better forget her
 A
You will meet another girl sooner or later
 D
Forget about that
 D          E                        A
Gimme gimme gimme gimme gimme your lovin'
 F#
But nobody knows what's goin' on in my heart
     D
They all tell me
 D
we are too young for a start
 D
So what can I do
 D
so what can I do
 E
So listen to my song I'm gonna sing it for you

 [Refrain]

 A                       D
Gimme gimme gimme gimme gimme your love
      E                A
i got heartache number one
 A                       D
Gimme gimme gimme gimme gimme your love
      E                             A    D  E
And I really really really can't go on
 A                      D
Gimme gimme gimme gimme gimme your love
      E                A
I got heartache number one
 A                      D
Gimme gimme gimme gimme gimme your love
      E                             D
And I really really really can't go on
         E
Can't go on

 N.C.

Can't go on

e|--------------------5-----------------------5----|
B|--2-2-2-------3-----------2-2-2-------3----------|
G|--2-2-2----6-----6--------2-2-2----6-----6-------|
D|--2-2-2-------------------2-2-2------------------|
A|--0-0-0-------------------0-0-0------------------|
E|-------------------------------------------------|

[Refrain]

 A                       D
Gimme gimme gimme gimme gimme your love
      E                A
i got heartache number one
 A                       D
Gimme gimme gimme gimme gimme your love
      E                                D  E
And I really really really can't go on
 A                      D
Gimme gimme gimme gimme gimme your love
      E                A
I got heartache number one
 A                      D
Gimme gimme gimme gimme gimme your love
      E                             D
And I really really really can't go on
Музыка доставляет удовольствие, без которого человеческая природа не может обойтись (Конфуций)
Мы стремимся к созданию контента, соответствующего всем нормам законодательства и уважающего интеллектуальную собственность. Мы также придаем большое значение тому, чтобы не задеть никого и не оскорбить чьи-либо чувства. Если у вас есть вопросы или претензии по размещенному материалу, пожалуйста, сообщите нам об этом на указанный адрес электронной почты: [email protected].
Шрифт
-
0
+
Прокрутка
-
0
+
Стоп
Наверх