Аккорды The Twilight Sad - Untitled #27

Добавлено: @romashka
Дата добавления: 07 Августа 2020г.
Рейтинг:
0.0
Просмотров: 35
Транспонировать - +
-------------------------------------------------------------------------------
-------------------------------------------------------------------------------
-2-2-2-2---2-2-2-2---2-2-2-2---2-2-2-2---2-2-2-2---1-1-1-1---1-1-1-1-----------
-----------------------------------------------------------------------2-2-2-2-
--------------------2-2-2-2----------------------------------------------------
3-3-3-3---0-0-0-0-------------3-3-3-3---0-0-0-0---0-0-0-0---2-2-2-2---2-2-2-2--


-----------------------------------------------
-----------------------------------------------
--2-2-2-2----2-2-2-2---2-2-2-2-2-2-2-2-2-2-2-2-
-----------------------------------------------
------------2-2-2-2---0-0-0-0-0-0-0-0-0-0-0-0--
-0-0-0-0---------------------------------------


-----------------------------------------------------------------------
-----------------------------------------------------------------------
--2-2-2-2----1-1-1-1---1-1-1-1---------------2-2-2-2-2-2-2-2---2-2-2-2-
----------------------------------2-2-2-2------------------------------
--------------------------------------------------------------2-2-2-2--
-0-0-0-0----0-0-0-0---2-2-2-2----2-2-2-2----0-0-0-0-0-0-0-0------------

---------------------------------------------
---------------------------------------------
---2-2-2-2-2-2-2-2-2-2-2-2-----2-2-2-2-------
---------------------------------------------
--0-0-0-0-0-0-0-0-0-0-0-0--------------------
------------------------------0-0-0-0--------


----------------------------------2-2-2-2---2-2-2-2---2-2-2-2----2-2-2-2--
----------------------------------0-0-0-0---0-0-0-0---0-0-0-0----0-0-0-0--
--1-1-1-1---1-1-1-1---------------2-2-2-2---2-2-2-2---2-2-2-2----2-2-2-2--
-----------------------2-2-2-2-----------------------0-0-0-0--------------
-------------------------------------------2-2-2-2--------------0-0-0-0---
-0-0-0-0---2-2-2-2----2-2-2-2----0-0-0-0----------------------------------


--2-2-2-2---2-2-2-2----2-2-2-2----2-2-2-2---
--0-0-0-0---0-0-0-0----0-0-0-0----0-0-0-0---
--2-2-2-2---2-2-2-2----2-2-2-2----2-2-2-2---
--------------------------------------------
-----------2-2-2-2--------------------------
--0-0-0-0-------------2-2-2-2----0-0-0-0----


--2-2-2-2----2-2-2-2----2-2-2-2----2-2-2-2-----2-2-2-2----2-2-2-2-2-2-2-2--
--0-0-0-0----0-0-0-0----0-0-0-0----0-0-0-0-----0-0-0-0----0-0-0-0-0-0-0-0--
--2-2-2-2----2-2-2-2----2-2-2-2----2-2-2-2-----2-2-2-2----2-2-2-2-2-2-2-2--
------------0-0-0-0--------------------------------------------------------
-2-2-2-2---------------0-0-0-0----------------2-2-2-2----------------------
----------------------------------0-0-0-0----------------2-2-2-2-2-2-2-2---

Наверх