Аккорды The Вепри - Кацево сердце

Добавлено: @romashka
Дата добавления: 28 Мая 2022г.
Рейтинг:
0.0
Просмотров: 216
Транспонировать - +
Табы:
1|-----------------|-----------------|-------3---------|-------2---------|
2|-----------------|-----------------|-----5-----------|-----3-----------|
3|-----0-2---------|-----0-2---------|---4-------------|---2-------------|
4|---2-------------|---1-------------|-----------------|-0---------------|
5|-3---------------|-2---------------|-----------------|-----------------|
6|-----------------|-----------------|-0---------------|-----------------|

1|-----------------|-----------------|-------3---------|-------2---------|
2|-----------------|-----------------|-----5-----------|-----3-----------|
3|-----0-2---------|-----0-2---------|---4-------------|---2-------------|
4|---2-------------|---1-------------|-----------------|-0---------------|
5|-3---------------|-2---------------|-----------------|-----------------|
6|-----------------|-----------------|-0---------------|-----------------| X2

[Вступление]:
Ей плевать на бабло
И ей всё равно Гармаш или Чистяков
Нельзя сахар и соль
Можно только любовь

C(III)        B            Em(VII)
Он так любит её, но ей всё равно
      D(V)
Бессердечная сука
C(III)        B            Em(VII)
И вот, эта любовь никуда не ведёт
      D(V)
Бесконечная битая ссылка

Закалённый её бегом внешний вид
Заставляет чаще биться сердце его
Он бы ради неё победил коммунизм
Он вернул бы гипофиз в калабуховский дом
Электробус уплывает, тая вдаль
Ла-ла-ла-ла-ла-ла-ла

C(III)        B            Em(VII)
Он так любит её, но ей всё равно
      D(V)
Бессердечная сука
C(III)        B            Em(VII)
И вот, эта любовь никуда не ведёт
      D(V)
Бесконечная битая ссылка
C(III)        B    Em(VII)
Как найти настоящую любовь
            D(V)
В эпоху постмодерна и метавселенных?
C(III)        B    Em(VII)
Что толку тратить жизнь на урбанизм
            D(V)
Если по этому городу гулять тебе не с кем?
C(III)        B    Em(VII)
Как найти настоящую любовь
            D(V)
В эпоху постмодерна и метавселенных?
C(III)        B    Em(VII)
Что толку тратить жизнь на урбанизм
            D(V)
Если по этому городу гулять тебе не с кем? 
Наверх