Аккорды The Wombats - White Eyes

Добавлено: @romashka
Дата добавления: 18 Октября 2018г.
Рейтинг:
0.0
Просмотров: 27
Транспонировать - +
Capo 1st fret

Verse 1:
e|-----------------------------------------------------|
B|-----------------------------------------------------|
G|-----------------------------------------------------|
D|-----------------------------------------------------|
A|-------------------------------------------------6-8-|
E|---1-4-1-1-4--1-4-1-1-4---8-11-8-8-11---6-10-6-6-----|

e|----------------------------------------------------|
B|----------------------------------------------------|
G|----------------------------------------------------|
D|----------------------------------------------------|
A|----------------------------------------------------|
E|---1-4-1-1-4--1-4-1-1-4---8-11-8-8-11---6-10-6-6-10-|

e|-----------------------------------------------------|
B|-----------------------------------------------------|
G|-----------------------------------------------------|
D|-----------------------------------------------------|
A|-------------------------------------------------6-8-|
E|---1-4-1-1-4--1-4-1-1-4---8-11-8-8-11---6-10-6-6-----|

e|----------------------------------------------------|
B|----------------------------------------------------|
G|----------------------------------------------------|
D|----------------------------------------------------|
A|----------------------------------------------------|
E|---1-4-1-1-4--1-4-1-1-4---8-11-8-8-11---6-10-6-6-10-|

Verse 1:
  Em                    
I don't know how to deal 
            Bm              A
with these New York City blues
     Em                   
It's not much of a weekend 
              Bm             A
when there's one of me and none of you
    Em                     
And somewhere in the hotel, 
       Bm               A
I'm scrambling in the dark
    Em                          
But you turned on the sprinklers 
           Bm                  A
and now I think I'm in a waterpark

Pre-Chorus:
C             A
You bleach my heart, you do

Chorus:
         Em                                D
My white eyes don't care about the opening lines
   A                 Em
No matter how hard I try
               D                    A
I need you the most, I need you the most
              Em                           D
I slipped and missed, a kink in the arithmetic
    A                            Em
But baby, who you're going home with?
               D                    A
I need you the most, I need you the most

Verse 2:
    Em                        
Sometimes I feel the tension, 
           Bm               A
you're the coldest form of war
     Em                      
It's hard to keep my chin up 
         Bm                      A
when my guts are lying on the floor
  Em                         
I let you chew the red parts 
    Bm                   A
and eat my mind like a cake
 Em                     
11 times round the block 
                Bm                 A
and you're the only drug I wanna take

Pre-Chorus:
C             A
You clean my heart, you do

Chorus:
         Em                                 D
My white eyes don't care about the opening lines
   A                 Em
No matter how hard I try
               D                    A
I need you the most, I need you the most
              Em                           D
I slipped and missed, a flaw in the arithmetic
    A                            Em
But baby, who you're going home with?
               D                    A
I need you the most, I need you the most
               Em D A
I need you the most

Pre-Chorus:
C             A
You clean my heart, you do
     C                     A
But still it twists like a Rubic's cube
C                  A
You, you turn the oceans into streams
C                       A
You, you're taking the best, the best of me

Chorus:
         Em                                D
My white eyes don't care about the opening lines
   A                 Em
No matter how hard I try
               D                    A
I need you the most, I need you the most
              Em                           D
I slipped and missed, a flaw in the arithmetic
    A                            Em
But baby, who you're going home with?
               D                    A ` Em D A Em
I need you the most, I need you the most
               D                    A
I need you the most, I need you the most
               Em 
I need you the most
comments powered by Disqus
Наверх