Аккорды Three Days Grace - Pain

Добавлено: @romashka
Дата добавления: 07 Августа 2022г.
Рейтинг:
0.0
Просмотров: 50
Транспонировать - +
Drop D tuning - D A D G B E 
  
Guitar 1 - Adam Gontier 
Guitar 2 - Barry Stock 
  
[Intro/Verse] 
  
Gtr I 
E|------0-------0------0--------0------0-------0--------0--------0--------------0-|x1 
B|--------0--------------0---------------0-------0--------0--------0-------0------| 
G|---12------12-----12-------12-----12-------12------12-------12--------12---12---| 
D|-14------13-----12-------11-----14-------13------12-------11-------10-----------| 
A|--------------------------------------------------------------------------------| 
D|--------------------------------------------------------------------------------| 
  
  
[Chorus] 
  
Gtr I, Gtr II 
E|--------------------------------------------------------| 
B|--------------------------------------------------------| 
G|---------4-5-4p0----------------------4-5-4p0----2------| 
D|-2--2----x-x-x------5----0----2--2----x-x-x------2----0-| 
A|-2--2----2-3-2p0----5----0----2--2----2-3-2p0----0----0-| 
D|-2--2---------------5----0----2--2--------------------0-| 
  
E|--------------------------------------------------------------|x1 
B|--------------------------------------------------------------| 
G|---------4-5-4p0------------------------------------11-12-11--| 
D|-2--2----x-x-x------5----0----12-12-12-12----0--0----x--x--x--| 
A|-2--2----2-3-2p0----5----0----10-10-10-10----0--0----9-10--9--| 
D|-2--2---------------5----0----10-10-10-10----0--0-------------| 
  
  
[Verse & Chorus] 
  
  
[Bridge] 
  
Gtr I, Gtr II 
E|-----------------------------------------------|x2 
B|-----------------------------------------------| 
G|11-12-11-12-11-12-11-12-11--5-5-5-5--7-7-7-7---| 
D|-9--9--9--9--9--9--9--9--9--5-5-5-5--7-7-7-7---| 
A|----------------------------3-3-3-3--5-5-5-5---| 
D|-----------------------------------------------| 
  
  
[Outro] 
  
E|-------------------------------|x1 
B|-------------------------------| 
G|11--12--11--12--11--12--11--12-| 
D|-9---9---9---9---9---9---9---9-| 
A|-------------------------------| 
D|-------------------------------| 
  
A very easy song to learn. 
  
  
  
************************************ 
  
| x  Dead note 
| p  Pull-off 
  
************************************ 
Наверх