Аккорды «Thrice»

Thrice
Thrice - это американская post-hardcore / melodic hardcore (раннее творчество) группа из города Ирвин, штат Калифорния, сформированная в 1998 году. Группа была основана гитаристом/вокалистом Дастином Кенсру и гитаристом Теппеем Тераниши, в то время, когда они обучались в средней школе. Группа известна быстрой, мощной музыкой, выражающейся в тяжелых рифах (раннее творчество), особенных линиях ведущего гитариста, и частых изменениях в сложных музыкальных размерах (позднее творчество). Этот стиль… Читать полностью... Thrice - это американская post-hardcore / melodic hardcore (раннее творчество) группа из города Ирвин, штат Калифорния, сформированная в 1998 году. Группа была основана гитаристом/вокалистом Дастином Кенсру и гитаристом Теппеем Тераниши, в то время, когда они обучались в средней школе. Группа известна быстрой, мощной музыкой, выражающейся в тяжелых рифах (раннее творчество), особенных линиях ведущего гитариста, и частых изменениях в сложных музыкальных размерах (позднее творчество). Этот стиль иллюстрируется на их втором альбоме, The Illusion of Safety (2002) и в их третьей работе под названием Artist In The Ambulance (2003). Их четвертый альбом Vheissu (2005) показал существенные стилевые изменения в музыке группы, включая электронику, клавишные инструменты, и более экспериментальное и детальное написание песен. Их пятой работой стал двойной альбом под названием Alchemy Index, выпущенный как два набора двух компакт-дисков, которые вместе составляют цикл в 24 песни, 4 части. Каждый из четырех EP с 6 песнями Alchemy Index показывает существенно отличающиеся стили, основанные на различных музыкально-эстетичных сторонах группы, Песни отражают элементные темы огня, воды, воздуха и земли, и лирически и музыкально. Шестой альбом группы, Beggars, был выпущен 11 августа 2009. Седьмой - Major / Minor - в сентябре 2011 года. Доходы от каждого альбома, выпущенного группой, отправлены на благотворительность. Скрыть...
Популярные аккорды Thrice:
алфавиту | просмотрам | случайно
  • Intro riff- Just Guitar and drums 
    (palm muted) 
    e|-----------------------------------------------------------------------------------|
    b|-----------------------------------------------------------------------------------|
    g|-----------------------------------------------------------------------------------|
    d|------------6-----------------------------------4-----6--6--6------4----6--6--6----|…
  • Guitar 1:
    Intro: (has volume swells)
    D-------------------------------------------------------------------|
    A-------------------------------------------------------------------|
    F--10~----14~---12~----10~--------10~----14~----12~---9~/10~--------|
    C-------------------------------------------------------------------|
    G-------------------------------------------------------------------|
    C-------------------------------------------------------------------|
    
    Verse:
    D-------------------------------------------------------------------|
    A-------------------------------------------------------------------|
    F--10~----14~----12~---10~/9~------10~----14~----12~----9~/10~------|
    C-------------------------------------------------------------------|
    G-------------------------------------------------------------------|
    C-------------------------------------------------------------------|
    
    Chorus:…
  • Intro
    guitar 1:
    
    intro: part 1
    Guitar 1:
    E  -----------------------------------------------------|
    B  -----------------------------------------------------|
    G  -----------------------------------------------------|
    D  ---12-12-12-----------9-9-9--------------------------|
    A…
  • Standard Tuning: E A D G B e
    
     x = mute
     ~ = let ring
     h = hammer
     p = pull off
     / = slide
    
    Intro: Teppei
    e|--------------------------------------------------------------------|
    B|--------------------------------------------------------------------|
    G|------6-----4---------------------------6-----4---------------------|
    D|------------------7-----7-----6h7-------------------7-----7-----6---|
    A|--4-4---4-4---4-4---4-4---4-4-------4-4---4-4---4-4---4-4---4-4-----|
    E|--------------------------------------------------------------------|…
  • Intro (play this 2 times):
    e|---------------------------------------------------------------------------|
    B|---------------------------------------------------------------------------|
    G|---------------------------------------------------------------------------|
    D|--------------4-----4-----4h5-4--------2-----0-----4-----4h5-4-------------|
    A|--------2------------------------3-3-3---3-3---3-3---3-3-------------------|
    E|--0-0-0---0-0---0-0---0-0--------------------------------------------------|…
  • INTRO Part 1   
    |-----------------------------------------------------------| 
    |--------2-3---5-3-2----------------------------------------|
    |--4-3-4-----4-------4-3-0----------2---0-2-3-0-5-3-2-------|
    |--------------------------4-2-0------2---------------4-3-0-|
    |--------------------------------4--------------------------|
    |-----------------------------------------------------------|…
  • Drop D Tuning
    
    Guitar1
    
    Intro
    e|----------------------------------------------------------------------------------------|
    B|------------------------------------------------------------------------10--------------|
    G|-----------------6-----6h7p6-----------------6-----6h7p6-----6h7h9p6h7------9p6h7p6-----|
    D|--------------7-----7---------7~~~~-------7-----7---------7--------------------------7--|
    A|---------7h9-------------------------7h9------------------------------------------------|
    E|--0~~~~------------------------------0--------------------------------------------------|
    
    e|--------------------------------------------------------------------------------|
    B|--------------------------------------------------------------------------------|
    G|--------------------------------------------------------------------------------|
    D|--6-6h7p6p4h6----------6--------4-----------4h6p4-------------6--------7--------|
    A|--------------------5--------5-----5-----5---------5/7-----4-----4--------4-----|
    E|---------------0~~--------0-----------0-----------------4-----------4--------4--|
    
    e|-----------------------------------------------------------------------------|
    B|-----------------------------------------------------------------------------|
    G|-----------------------------------------------------------------------------|
    D|--7-7h9p7--6--7--------6-----------4--------7------------------7-------9-----|
    A|--------------------5-----5-----5--------9-----7h9p7--4-----4-------------7--|
    E|-----------------0-----------0--------0------------------4--------4/6--------|
    
    e|-------------------------------------------------------------5------------|
    B|----------------------------------------------------------/7-7--5h7p5-----|
    G|------------------9----------------------------------------------------6--|
    D|-------9--------9-9h11p9--7/9--------6--------4---------------------------|
    A|----------7-----------------------5-----5--------5-----5------------------|
    E|--4/6--------6-----------------0-----------0--------0---------------------|
    
    e|-----------------------------------------------------------------------------------|
    B|-----------------------------------------------------------------------------------|
    G|-----------------4--------4-4h6p4---------------------------------9~---------------|
    D|--------7----------------------------------12--------11-------11-11h12p11p9h11-----|
    A|-----4-----4--------4-------------------9------9---------9-------------------------|
    E|--4-----------4--------4-----------4/9------------9---------9-------------------0~~|
    
    Verse1
    e|------------------------------------------------------------------------------|
    B|------------------------------------------------------------------------------|
    G|--13-13-13-13-13-13--11-11-11-11-11-11--13-13-13-13-13-13--14-14-14-14-14-14--|
    D|------------------------------------------------------------------------------|
    A|--11-11-11-11-11-11---9--9--9--9--9--9--11-11-11-11-11-11--12-12-12-12-12-12--|
    E|------------------------------------------------------------------------------|
    
    e|-------------------------------------------------------------------------------|
    B|-------------------------------------------------------------------------------|
    G|--13-13-13-13-13-13--11-11-11-11-11-11--14-14-14-14--16-16-16-16--13-13-13-13--|
    D|-------------------------------------------------------------------------------|
    A|--11-11-11-11-11-11---9--9--9--9--9--9--12-12-12-12--14-14-14-14--11-11-11-11--|
    E|-------------------------------------------------------------------------------|
    
    e|------------------------------------------------------------------------|
    B|------------------------------------------------------------------------|
    G|--16-16-16-16-16-16--13-13-13-13-13-13--14-14-14-14-14-14--19-19-19-19--|
    D|------------------------------------------------------------------------|
    A|--14-14-14-14-14-14--11-11-11-11-11-11--12-12-12-12-12-12--17-17-17-17--|
    E|------------------------------------------------------------------------|
    
    e|------------------------------------------------------------------------|
    B|------------------------------------------------------------------------|
    G|--19-19--18-18-18-18-18-18-18-18--16-16-16-16-16-16--14-14-14-14-14-14--|
    D|------------------------------------------------------------------------|
    A|--17-17--16-16-16-16-16-16-16-16--14-14-14-14-14-14--12-12-12-12-12-12--|
    E|------------------------------------------------------------------------|
    
    Chorus
    e|--4h5p4-----4h5--------4h5p4-----4h5--------4h5p4-----4h5--------|
    B|---------5----------5---------5----------5---------5----------5--|
    G|-----------------6--------------------6--------------------6-----|
    D|-----------------------------------------------------------------|
    A|-----------------------------------------------------------------|
    E|-----------------------------------------------------------------|
    
    e|------------5-----5h6h8p6--5-----5---------------------------------------|
    B|--6p5--6h8-----8--------------6-----8p6h8--6p5--6h8--6p5--6h8--6p5--6h8--|
    G|-------------------------------------------------------------------------|
    D|-------------------------------------------------------------------------|
    A|-------------------------------------------------------------------------|
    E|-------------------------------------------------------------------------|
    
    Verse2
    e|-------------------------------------------------------------------------|
    B|-------------------------------------------------------------------------|
    G|--9-9-9-9-9-9--7-7-7-7-7-7--4-4-4-4-4-4--6-6-6-6-6-6--13-13-13-13-13-13--|
    D|-------------------------------------------------------------------------|
    A|--7-7-7-7-7-7--5-5-5-5-5-5--2-2-2-2-2-2--4-4-4-4-4-4--11-11-11-11-11-11--|
    E|-------------------------------------------------------------------------|
    
    e|-------------------------------------------------------------------------------------|
    B|-------------------------------------------------------------------------------------|
    G|--11-11-11-11-11-11--13-13-13-13-13-13--11-11-11-11-11-11--4-4-4-4-4-4--6-6-6-6-6-6--|
    D|-------------------------------------------------------------------------------------|
    A|---9--9--9--9--9--9--11-11-11-11-11-11---9--9--9--9--9--9--2-2-2-2-2-2--4-4-4-4-4-4--|
    E|-------------------------------------------------------------------------------------|
    
    e|------------------------------------------------------------------------------|
    B|------------------------------------------------------------------------------|
    G|--13-13-13-13-13-13--11-11-11-11-11-11--13-13-13-13-13-13--16-16-16-16-16-16--|
    D|------------------------------------------------------------------------------|
    A|--11-11-11-11-11-11---9--9--9--9--9--9--11-11-11-11-11-11--14-14-14-14-14-14--|
    E|------------------------------------------------------------------------------|
    
    e|------------------------------------------------------------------|
    B|------------------------------------------------------------------|
    G|--18-18-18-18-18-18--16-16-16-16--14-14-14-14--13-13-13-13-13-13--|
    D|------------------------------------------------------------------|
    A|--16-16-16-16-16-16--14-14-14-14--12-12-12-12--11-11-11-11-11-11--|
    E|------------------------------------------------------------------|
    
    Interlude1
    e|--------------5-----4-----------------5-----4-----------------5-----4-----|
    B|-----5-----5-----5-----5-----5-----5-----5-----5-----5-----5-----5-----5--|
    G|--6-----6-----------------6-----6-----------------6-----6-----------------|
    D|--------------------------------------------------------------------------|
    A|--------------------------------------------------------------------------|
    E|--------------------------------------------------------------------------|…
  • Intro -	Am A2 Am A2 (x4) – C Cm C Cm (x2) – Am A2 Am A2 (x2)
    	Blank strum
    
    C
    i want to take the bullet, 
    Am
    the one aimed straight for your heart, 
    C
    i want to meet the wolves halfway, 
    Am
    and let them tear me apart. 
    C…
  • Tuning - Db Ab Db Gb Bb Eb
    
    
    Most of it is lead guitar. It's all in order, just figure out the times to play each riff.
    
    
    
    Intro/Verse
    |--0-0-0-0-0-0-0-0-0-0-0-0-|
    |-4-4-4-4-4-4-4-4-4-4-4-4--|
    |--------------------------|
    |--------------------------|
    |--------------------------|
    |--------------------------|
    
    
    |---------------------------------|
    |---------------------------------|
    |---------------------------------|
    |-2-2-2-2---2-2-2-2--2-2-2--2-2-2-|
    |-2-2-2-2---2-2-2-2--2-2-2--2-2-2-|
    |-2-2-2-2---2-2-2-2--2-2-2--2-2-2-|
    
    
    |---------------------------------|
    |-8p5-0h5-7p5-0h5-8p5-0h5-7p5-0h5-|
    |---------------------------------|
    |---------------------------------|
    |---------------------------------|
    |---------------------------------|
    
    
    |---0---0---0---0---0---0----0----0---0---0---0---0---0----0----0----0----0----0----0-|
    |-9---9---9---9---7---7---10---10---9---9---9---7---7---12---12---10---10---10---10---|
    |-------------------------------------------------------------------------------------|
    |-------------------------------------------------------------------------------------|
    |-------------------------------------------------------------------------------------|
    |-------------------------------------------------------------------------------------|
    
    
    |---0---0---0---0---0---0---0---0---0---0---0---0-|
    |-9---9---7---7---5---5---5---5---4---4---4---4---|
    |-------------------------------------------------|
    |-------------------------------------------------|
    |-------------------------------------------------|
    |-------------------------------------------------|
    
    
    |---------------------------------|
    |-8p5-0h5-7p5-0h5-8p5-0h5-7p5-0h5-|
    |---------------------------------|
    |---------------------------------|
    |---------------------------------|
    |---------------------------------|
    
    
    |---------------------------------|
    |---------------------------------|
    |---------------------------------|
    |-2-2-2-2---2-2-2-2--2-2-2--2-2-2-|
    |-2-2-2-2---2-2-2-2--2-2-2--2-2-2-|
    |-2-2-2-2---2-2-2-2--2-2-2--2-2-2-|
    
    
    |---------------------------------|
    |-8p5-0h5-7p5-0h5-8p5-0h5-7p5-0h5-|
    |---------------------------------|
    |---------------------------------|
    |---------------------------------|
    |---------------------------------|
    
    
    |---------------------------------|
    |---------------------------------|
    |---------------------------------|
    |-2-2-2-2---2-2-2-2--2-2-2--2-2-2-|
    |-2-2-2-2---2-2-2-2--2-2-2--2-2-2-|
    |-2-2-2-2---2-2-2-2--2-2-2--2-2-2-|
    
    
    |---------------------------------|
    |-8p5-0h5-7p5-0h5-8p5-0h5-7p5-0h5-|
    |---------------------------------|
    |---------------------------------|
    |---------------------------------|
    |---------------------------------|
    
    
    |-----------------------------------------|
    |-----------------------------------------|
    |-----------------------------------------|
    |-2-2-2-2---2-2-2-2--2-2-2--2-2-2--1--1-1-|
    |-2-2-2-2---2-2-2-2--2-2-2--2-2-2--1--1-1-|
    |-2-2-2-2---2-2-2-2--2-2-2--2-2-2--1--1-1-|
    PM…
  • Intro, pt. 1 (x4)
    -------------------------------------------------------------------------------
    -------------------------------------------------------------------------------
    -------------------------------------------------------------------------------
    -------------------------------------------------------------------------------
    -----8-0-7-0-7-8-10-0-8-0-7h8p7p0-5-7-----8-0-7-0-7-8-----8-7---8-7------------
    -0h7----------------------------------0h7-------------0h7-----6----------------
    
    Intro,…
  • Intro/ Main Riff (Rhythm)
    D||-------------------| These are power
    A||-------------------| chords palm muted
    F||*------------------|
    C||*------------------|
    G||---5---1---3---3---|
    C||---5---1---1---3---| Then Play them again…
  • Intro riff
                 D            G#
    e----------10----8---8--8---8-------------------------------|
    b--------------------9--9---9-------------------------------|
    g-----------------------------------------------------------|
    d-----------------------------------------------------------|
    a-----------------------------------------------------------|
    E-----------------------------------------------------------|
    
    Lead…
  • intro part 1 guitar a
    e--------------------------------------------------------------------------- 
    B--------------------------------------------------------------------------- 
    G---------------------------------------------------------------------------…
  • Intro1 
    (Acoustic Guitar) 
    e|----3----3----3----3----2----3----|----2~~~~----| 
    B|----3----1----3----0----0----1----|----3~~~~----| 
    G|----0----0----0----0----1----0----|----2~~~~----| 
    D|----0----2----0----0----2----2----|----0~~~~----|…
  • Tuning: C G C F A D
    
    
    
    Intro/Verse - Both Guitars
    |---------------------------------------------------------------------------------------------|
    |---------------------------------------------------------------------------------------------|
    |---------------------------------------------------------------------------------------------|
    |-0-0-0---0-0-0-10-10-10-0-0-0---0-0-0-10-10-10-8-8-8---8-8-8-10-10-10-8-8-8---8-8-8-10-10-10-|
    |-0-0-0---0-0-0-10-10-10-0-0-0---0-0-0-10-10-10-8-8-8---8-8-8-10-10-10-8-8-8---8-8-8-10-10-10-|
    |-0-0-0---0-0-0-10-10-10-0-0-0---0-0-0-10-10-10-8-8-8---8-8-8-10-10-10-8-8-8---8-8-8-10-10-10-|
    
    
    Guitar…
  • all guitars tunned down half-step and Drop Db/C#
    
    
    1st guitar
    intro
    eb:----------------------------------------------------------------------|  play 4 times
    Bb:----------------------------------------------------------------------|
    Gb:----------------------------------------------------------------------|
    Db:----------------------------------------------------------------------|
    Ab:----5p3---8p7-0-10p8-0-8-0-8p7-0-7---5p3---8p7-0-10p8-0-8-0-8p7p0-h3--|
    Db:--0-----0--------------------------0-----0----------------------------|
    
    
    eb:--------------------------------------------------------------------------|…
  • *GUITAR ONE - Teppei*
    e|---------------------------------------------------------------------------|
    B|---------------------------------------------------------------------------|
    G|-6-66-6-6-6--8-88-8-8-8--9-99-9-9-9--8-88-8-8-8----------------------------|
    D|-6-66-6-6-6--6-66-6-6-6--6-66-6-6-6--6-66-6-6-6----------------------------|
    A|---------------------------------------------------------------------------|
    E|---------------------------------------------------------------------------|…
  • Tuning:  E,A,D,G,B,E
    
    Chords used:
    
    
    E---0---0---0---0---|
    B---0---3---3---1---|
    G---7---0---0---0---|
    D---5---4---2---2---|
    A---7---5---3---0---|
    E-------------------|
    
    
    MY interpretation of the finger pattern:
    
    
    E---------0-----0--------------0-----0-------------0-----0-----
    B--------------------------3-----3-----3-------3-----3-----3---
    G-----7-----7-----7----------------0-----0-------------0-----0-
    D---5---5-----5-----5----4---4---------------2---2-------------
    A-7--------------------5-------------------3-------------------
    E--------------------------------------------------------------
    
    E-----0--------------|…
  • Tuning (low to high: CGCFAD)
    
    
    Intro
    Gtr.1          Gtrs. 1 and 2
    |-------------|---------------------------------------------------------
    |-------------|-------8-8-8-6~--------5-5-5-3~--------------------------
    |--7~---------|-------7-7-7-7~--------7-7-7-7~--------------------------
    |-------------|-------0-----0~--------0-----0~--------------------------
    |-------------|-0-0-0-----------0-0-0------------8~----/5-3-------------
    |-------------|-0-0-0-----------0-0-0------------8~---------------------
    (Volume…
  • Intro 2x
    G ---------------------|
    D ---------------------|
    A ---------------------| 
    E -9>>>---5>>--7>>-----| 
    
    Verse (When devils awake...) x2 
    G|-------------------------------------------------------------------| 
    D|--------2h3p2----------2h3p2----------2h3p2----------2h3p2---------|…
  • Tuning: Half a step down (Eb Ab Db Gb Bb Eb)
    
    
    Intro
    |----------------------|
    |----------------------|
    |----------------------|
    |-22222222--2222--2222-|
    |-22222222--2222--2222-|
    |-00000000--0000--0000-|
    PM--------  ----…
  • Acoustic 2x
    e|---------------------------------------------------------------------------|
    B|---------------------------------------------------------------------------|
    G|-----------12-----------12-----------9-----------9-------------------------|
    D|--------10----10-----10----10-----10---10-----10---10----------------------|
    A|------8----------8-8----------8-0---------0-0------------------------------|
    E|---------------------------------------------------------------------------|
    
    	*(1st…
  • GUITAR ONE'S PARTS
    --------------------
    Intro: (7x)
    e|-----------------------------------------------------------------|
    B|-----------------------------------------------------------------|
    G|-----------------------------------------------------------------|
    D|---5-7---7-8---5-7---7-8---5-7---7-8---5-7---7-8---5-7---7-8-7-5-|
    A|-0-----0-----0-----0-----0-----0-----0-----0-----0-----0---------|
    E|-----------------------------------------------------------------|
    
    Intro…
  • drop d tuning
    
    e------------------------------------------------------------------------|
    b------------------------------------------------------------------------|
    g------------------------------------------------------------------------|…
  • Tuning: C G C F A D
    
    / - Slide up
    PM - Palm mute
    
    
    Accurate I hope..have fun.
    
    
    Verse
    |-------------------------------------------------------|
    |-------------------------------------------------------|
    |-5/7-7----------5/7-7----------------------------------|
    |-------0-3-3-3--------0-3-3-3--8-8-8-8-8-8-5-5-5-5-5-5-|
    |-3/5-5-0-3-3-3--3/5-5-0-3-3-3--8-8-8-8-8-8-5-5-5-5-5-5-|
    |-------0-3-3-3--------0-3-3-3--8-8-8-8-8-8-5-5-5-5-5-5-|
    
    
    |-------------------------------------------------------|
    |-------------------------------------------------------|
    |-5/7-7----------5/7-7----------------------------------|
    |-------0-3-3-3--------0-3-3-3--5-5-5-5-5-5-8-8-8-8-8-8-|
    |-3/5-5-0-3-3-3--3/5-5-0-3-3-3--5-5-5-5-5-5-8-8-8-8-8-8-|
    |-------0-3-3-3--------0-3-3-3--5-5-5-5-5-5-8-8-8-8-8-8-|
    
    
    |-------------------------------------------------------------------|
    |-------------------------------------------------------------------|
    |-10-10-10--9-9-9--10-10-10-------10-10-10----------10-10-10--9-9-9-|
    |--9--9--9--8-8-8---8--8--8--------8--8--8-----------9--9--9--8-8-8-|
    |--9--9--9--8-8-8---8--8--8--0-0---8--8--8--0-0-0-0--9--9--9--8-8-8-|
    |--9--9--9--8-8-8------------0-0------------0-0-0-0--9--9--9--8-8-8-|
    PM…
  • Tuning: C G C F A D
    
    8x - Mute string after playing
    h - Hammer on
    p - Pull off
     - Slide down
    PM - Palm mute
    
    
    
    Intro
    |-------------|
    |-------------|
    |-------------|
    |-------------|
    |-8x-8x-8x-8x-|
    |-------------|
    
    
    Verse
    |-----------------------------------------------------------|
    |-----------------------------------------------------------|
    |----------------------------------------------7--8h9p8-8---|
    |-0-0000-0-0000--7------------0-0000-0-0000--0------------7-|
    |-0-0000-0-0000----5--3--5h6--0-0000-0-0000-----------------|
    |-0-0000-0-0000---------------0-0000-0-0000-----------------|
    PM-…
  • Tuning: C G C F A D
    
    
    Intro/verse
    |-----------------------------------------------------------|
    |-----------------------------------------------------------|
    |---------------------------------------------3-3-3-3/5-----|
    |------------------7--------------------------3-3-3-3/5-----|
    |--------------------8-7h8-8-----------------1-1-1-1/3--8-|
    |-000-0-000-000-0--------------0-0-000-000-0----------------|
    PM---…
  • Standard Tuning, Capo 1st Fret
    Time: 3/4
    ^=downstroke  v=upstroke
    
      Am                      Aadd9       Am 
      ^ ^ v ^ v (continue this rhytm for every chord)
    e-0-0-0-0-0-|-0-0-0-0-0-|-0-0-0-0-0-|-0-0-0-0-0-|
    B-1-1-1-1-1-|-1-1-1-1-1-|-0-0-0-0-0-|-1-1-1-1-1-|
    G-2-2-2-2-2-|-2-2-2-2-2-|-2-2-2-2-2-|-2-2-2-2-2-|
    D-2-2-2-2-2-|-2-2-2-2-2-|-2-2-2-2-2-|-2-2-2-2-2-|
    A-0-0-0-0-0-|-0-0-0-0-0-|-0-0-0-0-0-|-0-0-0-0-0-|
    E-----------|-----------|-----------|-----------|…
  • e|----------------------------|-----------------------------------|  
    B|----------------------------|-----------------------------------|
    G|--2-1-----------------------|-----------------------------------|
    D|------3-2-0-----------------|-----------------------------------|
    A|------------3-2-0-----------|-----------------------------------|
    E|------------------4-1-0-----|---------4/5----4-5-5/7----7/8-----|
    
    
    This…
Наверх