Аккорды Tokyo Ghoul - Unravel

Добавлено: @romashka
Дата добавления: 26 Июня 2022г.
Рейтинг:
0.0
Просмотров: 44
Транспонировать - +
[Verse 1]
 
e|--6-8-6-5-----8-6-5---|-------------------|-----------10-10-|---6-5---5-5---6-6----|
B|----------8---------8-|-8---6-------6-----|-----------------|----------------------|
G|----------------------|--------8-8------7-|-7-7---7-7-------|----------------------|
D|----------------------|-------------------|-----------------|----------------------|
A|----------------------|-------------------|-----------------|----------------------|
E|----------------------|-------------------|-----------------|----------------------|
 
e|--6-8-6-5-----8-6-5---|-------------------|-----------10-10-|---6-5---5-5---6-6----|
B|----------8---------8-|-8---6-------6-----|-----------------|----------------------|
G|----------------------|--------8-8------7-|-7-7---7-7-------|----------------------|
D|----------------------|-------------------|-----------------|----------------------|
A|----------------------|-------------------|-----------------|----------------------|
E|----------------------|-------------------|-----------------|----------------------|
 
[Verse 2]
 
e|--5---6--6-6-|-6--10-10--8-8---|--6-8-6-5----------|---------------------|---------------------|
B|-------------|-----------------|----------6--------|-6--6----------------|-6--6----------------|
G|-------------|-----------------|------------7--7 -|------7-7--5--5--7-7-|------7-7--5--5--7-7-|
D|-------------|-----------------|-------------------|---------------------|---------------------|
A|-------------|-----------------|-------------------|---------------------|---------------------|
E|-------------|-----------------|-------------------|---------------------|---------------------|
 
e|--------------------------|
B|-6--6---------------------|
G|------7-7----5---5--7---7-|
D|--------------------------|
A|--------------------------|
E|--------------------------|
 
[Chorus]
 
e|-10--8--10--8-8-8--6--5--6--5----|-10--8--8--6--6--5--6--13----|-15--13--10--6---6-6--5----5--6-|
B|-------------------------------6-|-----------------------------|-------------------------8------|
G|---------------------------------|--------------------------14-|--------------------------------|
D|---------------------------------|-----------------------------|--------------------------------|
A|---------------------------------|-----------------------------|--------------------------------|
E|---------------------------------|-----------------------------|--------------------------------|
 
e|--6--5--6--5-----|---10--8-8-8--6---6--5--6--5----|--10---8-8--8-8---6-6---6--5--6--13----|-15--13--10--6-|
B|---------------6-|------------------------------6-|---------------------------------------|---------------|
G|-----------------|--------------------------------|------------------------------------14-|---------------|
D|-----------------|--------------------------------|---------------------------------------|---------------|
A|-----------------|--------------------------------|---------------------------------------|---------------|
E|-----------------|--------------------------------|---------------------------------------|---------------|
 
e|-6-6--5-------5--6-|
B|---------8---------|
G|-------------------|
D|-------------------|
A|-------------------|
E|-------------------| 

|   Slide Down
Наверх