Аккорды ТонкаяКраснаяНить - Одиночество

Добавлено: @romashka
Дата добавления: 12 Августа 2017г.
Рейтинг:
0.0
Просмотров: 202
Транспонировать - +
--------------------------------------
--------------------------------------
--------------------------------------
---------------10-10--8---7-7-7--8-8-- 2 р.
--------------------------------------
-8-8-8-8-8-8-------8---8--------------

--------------------------------------
--------------------------------------
--------------------------------------
---------------8-8---7---5-5-5--7-7--- 2 р.
--------------------------------------
-5-5-5-5-5-5-----5---5----------------

--------------------------------------
--------------------------------------
--------------------------------------
---------------10-10---8---7-7-7--8-8- 2 р.
--------------------------------------
-8-8-8-8-8-8-------8---8--------------

--------------------------------------
--------------------------------------
--------------------------------------
---------------5-5---3---2-2-2--3-3---
--------------------------------------
-0-0-0-0-0-0-----0---0----------------

-------------------------------------
-------------------------------------
-------------------------------------
-------------------------------------
-------------------------------------
-0-0-0-0-2-2-2-2-3-3-3-3-7-7-7-7-----

Припев:
--------------------------------------
--------------------------------------
--------------------------------------
-8----------5---------0----------3----
-8----------5---------0----------3----
-8----------5---------0----------3----

I
Дождь рисует линии на стекле.
Я докурю и тихо уйду, закрыв за собой бесшумно двери.
Ложь, сладкую ложь я спрячу в серой золе.
Ее никогда не найдут. В нее никто, никто не поверит.

Припев:
Я не прошу ни о чем, все кончено,
Тусклые краски сменились на яркие.
Есть только я и мое одиночество,
Дающее силы.

II
Свет, бархатный свет покидает опустевший дом,
И воздух стал совсем другим. Он в тишине стучит о стены.
Рассвет прогонит мысли о былом,
Сотрет с лица привычный грим, но ночь придет ему на смену.

Припев:
Я не прошу ни о чем, все кончено,
Тусклые краски сменились на яркие.
Есть только я и мое одиночество,
Дающее силы.

III
Дождь рисует линии на стекле.
Я докурю и тихо уйду, закрыв за собой бесшумно двери.
Ложь, сладкую ложь я спрячу в серой золе.
Ее никогда не найдут. В нее никто, никто не поверит.

Припев:(4 раза)
Я не прошу ни о чем, все кончено,
Тусклые краски сменились на яркие.
Есть только я и мое одиночество,
Дающее силы.
Наверх