Аккорды «Tool»

Tool
Одна из лидирующих рок-групп 90-х годов, группа TOOL была сформирована в г. Лос-Анджелес в 1990 году, когда Денни и Пол познакомились с Адамом и Мейнардом. По словам Денни, он познакомился с Адамом через Тома Морелло (Tom Morello) из Rage Against the Machine, а с Мейнардом жил по соседству. Таким образом, первоначально в состав группы входили: James Herbert Keenan (Maynard) — вокал, Adam Thomas Jones — гитара, Daniel Edwin Carey — ударные, Paul M. D'Amour — бас-гитара, позже (после 1995 г.)… Читать полностью... Одна из лидирующих рок-групп 90-х годов, группа TOOL была сформирована в г. Лос-Анджелес в 1990 году, когда Денни и Пол познакомились с Адамом и Мейнардом. По словам Денни, он познакомился с Адамом через Тома Морелло (Tom Morello) из Rage Against the Machine, а с Мейнардом жил по соседству. Таким образом, первоначально в состав группы входили: James Herbert Keenan (Maynard) — вокал, Adam Thomas Jones — гитара, Daniel Edwin Carey — ударные, Paul M. D'Amour — бас-гитара, позже (после 1995 г.) это место занял Justin Gunnar Walte Chancellor Первый мини-альбом «Opiate» стал ярким и убедительным введением в особый стиль музыки, а песня «Hush» — хорошим помощником в распространении слухов о группе. Так, видеоклип, сопровождающий песню, наглядно проиллюстрировал отношение музыкантов к цензуре, т. к. они снялись в нем абсолютно голыми с заклеенными ртами. Выступление с группой Fishbone, европейские концерты с группой Rage Against the Machine (кстати, музыканты этой группы являются большими друзьями Tool) и туры по Америке с группой Rollins Band помогли отточить «живое» исполнение музыки. Увеличивающееся доверие к группе было продемонстрировано во втором альбоме «Undertow», где в записи песни «Bottom» принимал участие Генри Роллинс. Пришло время немного придержать свою агрессивную энергию и склонность к тяжелым лирическим темам, поэтому музыканты стали более смелыми и экспериментальными в написании песен. Так, композиция «Disgustipated», хотя и является лирической, в то же время демонстрирует чувство юмора, которое противоречит обычно мрачному имиджу Tool (в песне защищается право морковки на жизнь, чем высмеиваются многие политические движения). В дальнейшем группа вела интенсивную концертную деятельность, включая участие в фестивале Lollapalooza'93, где произвела настоящий фурор и после которого стала выступать самостоятельно. В результате такой активной деятельности альбом «Undertow» получил статус «platinum». Осенью 1995 года в составе Tool произошли изменения. В сентябре по причине «творческих разногласий» из группы ушел бас-гитарист (Paul D'Amour). Говорят, что он потерял интерес к группе, в результате чего отошел от процесса создания песен. А в начале ноября в обновленный состав был принят Джастин из группы Peach, известный музыкантам по совместным выступлениям. Альбом «Ænima», записанный уже с Джастином, стал наиболее удачным и наиболее продаваемым альбомом группы. В ноябре 1996 года альбом находился на верхних позициях известного рейтинга альбомов «Billboard». В декабре 2000 года было выпущено специальное издание под названием «Salival», включающее в себя коллекцию видео в формате DVD/VHS, диск с записью «живых» и студийных материалов, не вошедших в официальные альбомы, а также рекламный буклет. С перерывом в 5 долгих лет (как считают фаны) или примерно через год после выпуска «Salival» свет увидел новый шедевральный альбом «Lateralus». В том же году группа начинает совместное турне со своими вдохновителями и друзьями из колектива King Crimson. По окончании турне группа снова пропадает и выходит в свет со своим последним альбомом «10000 Days», вышедшим в 2006 году. В первое время фанаты приняли долгожданный альбом не слишком тепло по причинам измененного звучания и т. д., которые могли услышать лишь они, но это не помешало Tool произвести фурор, сыскать хорошие отзывы критиков и не одну пару лестных публикаций в таких именитых журналах, как The Rolling Stone и, конечно, снова завоевать вершину американских чатов. Спустя год фанаты успокоились, прислушались, поняли и сошлись во мнении, что Tool не изменились — они просто эволюционировали... Интересные факты: — созданием всех обложек, начиная с «Salival», занимался не менее известный чем сами Tool художник Алекс Грэй (Alex Grey), который также участвовал при создании визуализаций для концертов; — Tool также известны тем, что ремиксы для их DVD синглов с одноименными треками «Schism» и «Parabola» делал сам Lustmord; — гитарист Адам так же является создателем всех клипов группы (кроме «Hush»); — у группы имеется неизданный альбом в соавторстве с Nine Inch Nails под названием «The Tapeworm», работа над которым велась на протяжении 6 лет, но прекратилась в 2004 по причине неудовлетворительного результата и который находится на 1 месте в списке "Потенциально наиболее интересных невыпущенных записей", составленном журналом The Rolling Stone; — все клипы группы запрещены на телевидении. Единственное исключение — клип на песню «Stinkfist», который с трудом можно увидеть на MTV поздно ночью под названием «Track#1»; — на живых выступлениях они звучат так же, как и на альбомах; — так же существуют неофициальные клипы на песни «Schism (Remix)», «Parabola (Remix)», «The Pot», «Jambi» и «Right in Two» за авторством Моргана Роута (Morgan Routt). Скрыть...
Популярные аккорды Tool:
алфавиту | просмотрам | случайно
  • 0:00 - bass chords only intro
    G|---------------------------|
    D|--8-7/10/12---8-7/10/12----|
    A|--5-8/10/13---8-8/10/13----|
    D|------------------------0--|
    
    0:13				           x4
    G|---------10---9------------10---9---12----|
    D|-0h10h12----0---0--0h10h12----0---0----0--|
    A|------------------------------------------|
    D|------------------------------------------|
    
    0:40				
    G|----------10---9------------10---9---12---|
    D|:-0h10h12----0---0--0h10h12-----0---0---0-|
    A|:-----------------------------------------|
    D|------------------------------------------|…
  • This song is tuned (D,A,D,G) 
    Meaning, tune your E string down to D 
    
    
    G:|-----------------------------------------------------------| 
    D:|-----------------------------------------------------------| 
    A:|------5-----------3h5----------6p5---------3h5---------1h3-|…
  • Part : Guitar
    Tuning: drop B/E
    
    
    
    Legend
    
    nh - natural harmonic
     ph - pinch harmonic
     
    pm - palm mute
     x - muted string
     
    h - hammer on
     p - pull off
     
    // - slide down
      - slide up
     
    b - bend
     ~~ - vibrato
     
     - natural harmonic…
  • intro.bridge:
    G [---------------------]
    D [---------------------]
    A [----5----5----5----5-]
    D [-2----2----2----2----]
    
    verse (part 1):
    G [----------------------------]
    D [----------------------------]
    A [----------------------------]
    D…
  • Drop D tuning  
     
    key:  s=slide   b=bend  
     
     
    As the drums build up:  
     
    G------------------------------------------------------------------  
    D--0-0-0-0--0-0-0-0------------------------------------------------  
    A------------------------------------------------------------------…
  • Part : Guitar
    Tuning: drop D
    
    
    Legend
    
    nh - natural harmonic
     ph - pinch harmonic
     
    pm - palm mute
     x - muted string
     
    h - hammer on
     p - pull off
     
     - slide down
     // - slide up
     
    b - bend
     ~~ - vibrato
     
     - natural harmonic…
  • dropped d-tuning:   D-A-D-G-B-E
                      low         high
    
    (distortion)
    (feedback)                                   
                                                 
    e-----------------------------------------------------|
    b-----------------------------------------------------|
    g-----------------------------------------------------|
    d---2-x-x-2-x-x-10-x-x-10-x-x-2-x-x-2-x-x-5--4--2-0---|
    a---2-x-x-2-x-x-10-x-x-10-x-x-2-x-x-2-x-x-5--4--2-0---|
    d---2-x-x-2-x-x-10-x-x-10-x-x-2-x-x-2-x-x-5--4--2-0---|…
  • Intro
    
    G--------14--------12--------17--------14
    D-0h13p0----0h13p0----0h13p0----0h13p0---
    A----------------------------------------
    E----------------------------------------
    
    Then 
    
    G-------7---------------7--------
    D-0h1p0---0h1p0-3-0h1p0---0h1p0-3
    A--------------------------------
    E--------------------------------
    
    G-----------------
    D-----------------
    A-----------------
    E-0-0-0-0-0-0-0-0-
    
    Verse
    G--------14--------12--------17--------14
    D-0h13p0----0h13p0----0h13p0----0h13p0---
    A----------------------------------------
    E----------------------------------------
    
    Mini…
  • Dropped-D Tuning
    
    IntroVerse
    e-|---------------------------|
    B-|---------------------------|
    G-|---------------------------|
    D-|7-0-0-3--7-0-0-5--7-0-0-1-3|
    A-|7-0-0-3--7-0-0-5--7-0-0-1-3|
    D-|7-0-0-3--7-0-0-5--7-0-0-1-3|
    
    Bridge
    e-|---------------|
    B-|---------------|
    G-|---------------|
    D-|0-10-12-0-12-13|
    A-|0-10-12-0-12-13|
    D-|0-10-12-0-12-13|
    
    Rythm…
  • Dropped-D tuning
    
    
    e---------------------------------------------------------------------------
    b---------------------------------------------------------------------------
    g---------------------------------------------------------------------------
    d--0~~~~~~~~~~~~~~~~~~~~~~~~~~~~~~~~~~~~~~~~~~~~~~~~~~~~~~~~~~~~~~~~~~~~~~~~
    a--------------h3---h5----------h3---h5-------------------h8--------h3---h5-
    d------------------------------------------h3---h5--------------------------
    
    e---------------------------------------------------------------------------
    b---------------------------------------------------------------------------
    g-~~~~~~~~~~~~~~~~~~~~~~--3--p2--2------------------------------------------
    d-------------------------------------3/5---5/7--3--------------------------
    a---h3---h5-----------------------------------------------------------------
    d------------h3--h5---p0------------------------------0---------------------
    
    e---------------------------------------------------------------------------
    b------------------------------------------------------------------------3--
    g--3--p2--2----------------0--------------------------------------------2---
    d--------------3/5---5/7--5-------5---------------5--------------------0----
    a------------------------------------6-----6--5--6-----6--5--6--1--0--------
    d---------------------------------------------------------------------------…
  • Tuning: E-G-D-G-B-E
    
    
      (clean with varying effects)
    
     E --------------------------------------------------
     B -------7--8---7--8----------8--7-----8--7---------
     G -9-----------------------5--------7---------------
     D ---9----------------9-----------------------------…
  • Tuning: Drop D - GDAD
    ( ) - harmonic
    ~~~ - ring
    /  - slide up/down
    
    Intro
    ______
    
    G|---------------------(5)-----7-7-------------------------------------------------|
    D|---(5)(5)---(7)(7)-----------------------------(5)(5)-(7)(7)----------16-16------|
    A|-7--------7--------7-----5-5-----5~~~~~~~~~~-7-------7------7/14-14-14-----14===|
    D|---------------------------------0~~~~~~~~~~-------------------------------------|
    
    Once…
  • [Intro] 
       0:10-0:15                            0:15-0:20
    E|----(play 4x)-|      E|-----------------------------0-----------|
    B|--------------|	B|-----------------------------3-----------|
    G|--------------|	G|-----------------------------2-(let…
  • Intro
    
    guitar 1
    e-----------------------------------|
    B-----------------------------------|
    G-----------------------------------|
    D--4-----------4--------------------|      Repeat over and over
    A------5-----------5----------------|
    E-----------7-----------7-----------|
    
    
    Guitar…
  • Drop D-Tuning
    6-D
     
    ^-Bend String
    /-Slide
    /-Vibrato
    H-Hammer ON
    P-Pulloff
     
    Moderate Rock-156
    Half Time Feel
    Intro-Feedback
     
    			Full--hold bend------------|       Full--hold bend -----------------------------
    E|----------------------------------------------------------------------------
    B|--10^--10--10--10--10----10----10^---10---10---10---10-10-10-10-10-10-10
    G|--12^--12--12--12--12----12----12^---12---12---12---12-12-12-12-12-12-12
    D|----------------------------------------------------------------------------
    A|----------------------------------------------------------------------------
    D|----------------------------------------------------------------------------…
  • Intro
    |------------------------------------------------| 
    |------------------------------------------------| 
    |*---10-9----9----------------------------------*| 
    |*--------12---10-------------------------------*| 
    |-------------------10---12----------------------|…
  • Part : Guitar
    Tuning: drop D
    
    
    Legend
    
    nh - natural harmonic
     ph - pinch harmonic
     
    pm - palm mute
     x - muted string
     
    h - hammer on
     p - pull off
     
    // - slide down
      - slide up
     
    b - bend
     ~~ - vibrato
     
     - natural harmonic…
  • Intro
    g
    d
    a
    d  2 2
    
    Verse 1
    g
    d
    a
    d  2 2 2 2   2 2 2 2   0   20000
    
    Chorus
    g
    d
    a
    d  7   7 7 9   0 2 2 0  0 2 2 0 0 0 2  5 5 5 5 5/9
    
    Verse 2
    g
    d
    a
    d  2 2 2 2  /  10  10 10  /  5  5 5 5 6 0
    
    Chorus breakdown
    g
    d
    a
    d  7 7…
  • Intro/verse (not the song before it, just what's
    played on track 3)  all of this is palm muted.
    -----------------------------------------------------
    -----------------------------------------------------
    -----------------------------------------------------
    -----4-----4----4---4-----4-----4----4---4-----------
    ---2-----2--------------2-----2----------------------
    -3-----0-----5---2----3-----0-----5---2--------------
    
    This…
  • Intro played with slide 
    ----------------12---12---12 
    ----------------12---12---12 
    -----------12---12---12---12 
    -2/4//7////12---12---12----- 
    -2/4//7////12---12---------- 
    -2/4//7////12---12----------…
  • Part : Guitar
    Tuning: drop D
    
    
    
    (distorion)
    
    *rest, 8 bars*
    
    *volume off, delay on, hit open D5 chord and slowly bring in volume over 2 bars*
    
    *feedback*
    
    (distorion)
    
    *rest, 8 bars*
    
    *volume off, delay on, hit open D5 chord…
  • Standard Tuning
    
    Opening Riff:
    
    -----------------------------------------------------------------------
    -----------------------------------------------------------------------
    -----------------------------------------------------------------------
    --------14--14--9--9--10--10--12--12--10--10--9--9--3--3---------------
    -----------------------------------------------------------------------
    12--12-----------------------------------------------------------------
    
    Onto…
  • This riff is basically played throughout the whole song,
    and then the solo below comes in around 2 minutes through.
    Obviously you're gonna have to work out the strumming from this
    
     Em    G    A    C   Em    G   D/F#  G
    |-0----3----0----0----0----3----2----3-
    |-0----3----2----1----0----3----3----3-
    |-0----0----2----0----0----0----2----0-
    |-2----0----2----2----2----0----0----0-
    |-2----2----0----3----2----2----x----2-
    |-0----3--------------0----3----2----3-
    
    
    Here's…
  • Dropped D
    
    X=muffled
    h=hammer-on
    p=pull-off
    ^=bend
    
    Intro...
    ----------------------------- 4X... -----------------------
    -----------------------------       -----------------------
    -----------------------------       -----------------------
    -----------------------0-h1--…
  • Well...here it goes.
    [A]
    e|--------------------]
    b|--------------------]
    g|--------------------]
    d|--------------------]
    a|-2-0-2-5-2-0-2-0-2--]
    D|-2-0-2-5-2-0-2-0-2--](listen to the CD to see how many times you play it)
    
    [B](This…
  • Legend
    
    nh - natural harmonic
     ph - pinch harmonic
     
    pm - palm mute
     x - muted string
     
    h - hammer on
     p - pull off
     
     - slide down
     // - slide up
     
    b - bend
     ~~ - vibrato
     
     - natural harmonic
     x/// - pick scrape (directions…
  • Part : Guitar
    Tuning: drop D
    
    
    Legend
    
    nh - natural harmonic
     ph - pinch harmonic
     
    pm - palm mute
     x - muted string
     
    h - hammer on
     p - pull off
     
     - slide down
     // - slide up
     
    b - bend
     ~~ - vibrato
     
     - natural harmonic…
  • Main riff
    g
    d
    a                5          3           3  5
    d  0  0  3 0      3 0         3 0
    
    Chorus
    g
    d
    a
    d  0 3 5   0 3 5  x  3 5  0 3 0 3 5  0 3 5  0 3 5  x  3 5 0 3 0 3 5  6 5 3
    5 3 0
    
    g
    d   7 7       5
    a          7…
  • dropped-d tuning
    
    intro:
    
    e|---------------------------------
    B|---------------------------------
    G|------9---10--9----9----10-9-----
    D|---7----7-------7-----7------8--- x4
    A|---------------------------------
    D|---------------------------------
    
    e|---------------------------------
    B|---------------------------------
    G|---------------------------------
    D|---------------------------------…
  • Bass tab for Crawl Away by Tool
    
    Main riff
    g
    d
    a                                                                          
                      5   5
    e  0  2  2  0  2  0  2  2  2  2 2 2  2  2  0  2  2  0  2  0  2  2  2  2
    
    g
    d
    a…
  • tuning: Drop D (DADGBE)
    
    nh - natural harmonic
     ph - pinch harmonic
     pm - palm mute
     x - muted string
     h - hammer on
     p - pull off
      - slide down
     // - slide up
     b - bend
     ~~ - vibrato
      - natural harmonic
     x/// - pick scrape…
  • Play this eight times
    G---------------------
    D---------------------
    A---------------------
    D--0--0--0-----0--0---
    
    
    Then play this 4 times
    G------------------------
    D------------------------
    A------------------------
    D--0--0--0--0-----0--0---…
  • tuning: (d,a,d,e,b,g) drop-d everybody!
    
    
    intro:
    
    e:----------------------------------------------------------------
    b:----------------------------------------------------------------
    g:----------------------------------------------------------------
    d:-2-2--2-2--2-2-------------2-2--2-2--2-2------------------------…
  • Bass tab for 4 degrees by Tool
    
    Verse Riff
    g
    d
    a
    d  0^2 2 x 0^2 2 x 3332 0^2 2 x 0^2 2 x 3
    
    Chorus
    g
    d  7  7 7  5 5 5/10  5 5  5 5 3   3 3  3  3 3
    a
    d  
    
    Interlude 1
    g
    d
    a                                         10   10…
  • drop D-DADGBE
    you will need 2 guitars to get the right sound
    
    guitar 1-played clean and bassy
    
    e---------|
    b---------|
    g---------|
    d---8-----|
    a-----7---|
    D-------0-|
    
    
    play that figure over and over while guitar 2 does
    
    e---5------5--------5-------6----|
    b-6------5---5----6-------8----8-|
    g--------------------------------|
    d--------------------------------|
    a--------------------------------|
    D--------------------------------|
    
    use…
  • dropped d tuning
    
    e|--------------------------------------------
    B|--------------------------------------------
    G|--------------------------------------------
    D|-------------------------------------------- x 4
    A|---0--3--5--6-5-3-5-0--/10--3--5--6-5-3-5---
    D|---0--3--5--6-5-3-5-0--/10--3--5--6-5-3-5---
    
    e|-------------------------------------
    B|-------------------------------------
    G|-------------------------------------
    D|-------------------------------------…
  • Main riff #1
    g
    d
    a
    d  6 7 7 10  0
    
    Main riff #2
    g
    d
    a
    d  6  7  10   10   13  0    13    13  12 12 12
    
    Pre-chorus
    g
    d            2  2 
    a                     3   3 0
    d  2  2 2
    
    I don't know the chorus. Sorry.
    
    g
    d      3…
Наверх