Аккорды «Toto»

Toto
"Toto" были основаны в 1978 году Дэвидом Пэйчем (р. 21 июня 1954, Лос-Анджелес; клавишные, вокал), Стивом Люкатером (р. 21 октября 1957, Лос-Анджелес; гитара, вокал), Бобби Кимболлом (Роберт Тотекс, р. 29 марта 1947, Винтон; вокал), Стивом Покаро (р. 2 сентября 1957, Коннектикут; клавишные), Дэвидом Хангейтом (р. Техас; бас) и Джеффом Покаро (р. 1 апреля 1954, Хартфорд, у. 5 августа 1992; ударные). Дэвид был сыном аранжировщика Марти Пэйча, а братья Покаро – сыновьями перкуссиониста Джо Покаро.… Читать полностью... "Toto" были основаны в 1978 году Дэвидом Пэйчем (р. 21 июня 1954, Лос-Анджелес; клавишные, вокал), Стивом Люкатером (р. 21 октября 1957, Лос-Анджелес; гитара, вокал), Бобби Кимболлом (Роберт Тотекс, р. 29 марта 1947, Винтон; вокал), Стивом Покаро (р. 2 сентября 1957, Коннектикут; клавишные), Дэвидом Хангейтом (р. Техас; бас) и Джеффом Покаро (р. 1 апреля 1954, Хартфорд, у. 5 августа 1992; ударные). Дэвид был сыном аранжировщика Марти Пэйча, а братья Покаро – сыновьями перкуссиониста Джо Покаро. Члены группы познакомились в семидесятых годах, еще учась в высшей школе, на студийных сессиях, которым они посвящали все свое свободное время. В 1976 году Пэйч, Хангейт и Джефф Покаро приняли участие в записи диска Боза Скаггза "Silk Degrees", являясь также авторами многих песен с этого альбома. Пластинка, представлявшая собой так называемый поп-рок разошлась многомиллионным тиражом. После этого Дэвид и Джефф решили основать команду "Rural still life", к участию в которой пригласили своих бывших одноклассников. С приходом в состав Кимболла группа сменила название на "Toto" и в октябре 1978 года выпустила одноименный дебютный альбом. Пластинка имела огромный успех, попав в лучшую десятку хит-парадов. Всего было продано более двух миллионов экземпляров этого диска. Сопровождавший его сингл "Hold the Line" также оказался в американском Топ 10, а группа получила "Грэмми" в номинации "лучший новый исполнитель". Последующие релизы, "Hydra" (все-таки получивший "золото") и "Turn back", имели меньший успех, чем дебютник, зато "Toto IV", появившийся в апреле 1982-го значительно превзошел его. Этот альбом стал мульти-платиновым, долго не вылезая из десятки лучших. Композиция "Africa" заняла верхнюю строчку хит-парадов, а песни "Rosanna" (о подруге Люкатера, актрисе Розанне Аркетт) и "I Won't Hold You Back" попали в Топ 10. К концу 1982 года "Toto" огребли шесть наград "Грэмми" в различных номинациях. Несмотря на все это из группы решили уйти Бобби Кимболл и Дэвид Хангейт. Басиста сменил еще один братец Покаро, Майк (р. 29 мая 1955). На должность вокалиста был взят Деннис "Ферджи" Фредериксен (р. 15 мая 1951). Однако он продержался в команде недолго, записав с "Toto" лишь один альбом. "Isolation" хотя и получил "золото" но до своего предшественника ему было далековато. Фредериксен свалил, а ему на смену пришел Джозеф Вильямс, сын известного композитора Джона Вильямса. Вскоре недовольный новым направлением из группы ушел Стив Покаро. После альбома 1988 года "The Seventh One" Вильямс тоже свалил в тень. Оставшиеся "тотошники" взяли тайм-аут. Люкатер занялся сольной работой а Дэвид Пэйч взялся писать музыку к фильмам. В 1990-м группа собралась вновь, теперь уже с новым вокалистом Жаном-Мишелем Байроном, и выпустила сборник старых и новых вещей "Past to Present". Однако Байрон пришелся не в кассу и Люкатер решил сам взяться за лидер-вокал. В 1992 году от сердечного приступа скончался Джефф Покаро, и альбом "Kingdom of Desire" группа заканчивала с Саймоном Филипсом на ударных. К тому времени "Toto" были более популярны в Европе и Японии, чем у себя дома. Люкатер параллельно работе в группе успевал выпускать сольные диски. В 1999 году в "Toto" после 15-летнего отсутствия вернулся Бобби Кимболл, и вместе с ним команда выпустила альбом "Mindfields". Скрыть...
Популярные аккорды Toto:
алфавиту | просмотрам | случайно
  • The Simple Way to begin with
    (1:48)
    e---------------------------------------14-----------------------|
    B--(5/17)---17b19pickpick-17b19p14-17b19-------------------------|
    G--(5/17)--------------------------------------------------------|
    D----------------------------------------------------------------|
    A----------------------------------------------------------------|
    E----------------------------------------------------------------|
    
    e---14--16--17-16p14--------------------------------------------------|
    B--------------------(17p14)---------------------17-------------------|
    G---------------------------16p14vv------14-16b18---16b18-16b18vv-----|
    D-----------------------------------/(16)-----------------------------|
    A---------------------------------------------------------------------|
    E---------------------------------------------------------------------|
    (1:54)
    Hard…
  • A | Dbm || x4
    B                   Ebm     Abm
    I hear the drums echoin tonight
    B               A             Dbm         Abm   A  Dbm
    She has only whispers of some quiet conversa - tion
    B                Ebm           Abm…
  • Припев:
                   Dm
    Lasciatemi cantare 
                        Am7
    con la chitarra in mano 
                  E
    lasciatemi cantare 
                   Am
    sono un italiano 
    Am
    Buongiorno Italia gli spaghetti al dente 
    e…
  • C     G/C   F/A   Dm9   Dm9/G^G7^C7+
    C7+   G/C   F     C/E   Dm   E5+
    
    Am7  Am7/C  Am7/E  C/G^Ab5+  x4
    
    Am7  /C    /E     C/G     Ab5+     Am7  /C   /E   C/G^ Ab5+^
    Side  by  side,  I'll be  yours   forever
    Am7   /C   /E…
  • Abm x4 | Gb7 x4 | E7+ x2 | Abm/Eb ^ Eb | Eb | Ab x2 |
    
    Abm7  Gb/Ab              Abm7       Gb/Ab
     99,           I've been waiting so long,
       Abm7/Gb   Gb          Abm7/Gb       Gb
    Oh  9 - - - -9,  where did we       go…
  • C7+                      D6                        Em7/9   Em7
    It's not your situation, I just need contemplation  over   you
    C7+                    D6                           Em7/9    Em7
    I'm not so systematic, it's just…
  • F9-4     F   Bb/F    Bb/Eb           Eb
     Some    peo-ple     lives    their dreams
    F9-4/Eb    F/Eb  Bb/Eb    Bb/F          F
     Some      peo - ple      close  their eyes
    F9-4     F  Bb/F      Bb/Eb       Eb    Cm7
     Some…
  • 0:10 intro
    G|-------------------------------------------------------------------------------|
    D|-------------------------------------------------------------------------------|
    A|---------------------6~------8~--------------------------6------6-8~----8------|
    E|----3~-------3~--------------------8~-----3~------3~----------------------8~---|…
  • intro (you can play it if you want...)
    
    G|-----------------------------------------|
    D|-----------------------------------------|
    A|---2~-------------------2~---------------|
    E|--------2~----5~-----2-------2~----5~----|…
  • Intro : E  B  E  B
    
     E              B       A        B
    Here's to the few who fared my love
     E        B      A       C#m
    Only for you I care my love
     C#m            B          A             B
    I've given it hope and I know…
  • intro
    --------------------------------------------------------|
    --------------------------------------------------------|
    --5---4---2---------------------------------------------| repeat 3 times
    --5---5---2---------------------------------------------|
    --------------------------------------------------------|
    --------------------------------------------------------|
    
    --------------------------------------------------------|
    ------------------------3-5-----------------------------|
    -5----------------2-5-----------------------------------|
    -5-----------2-5----------------------------------------|
    --------3-5---------------------------------------------|
    --------------------------------------------------------|
    am
    How…
  • G7  G7/4  G7  G7/4
    
         G7                     G7/4
         Reflections in my mind   thoughts I can't define
         G7                           F           C/E
         My heart is racing and the  night  goes  on
    G7…
  • normal tuning
    
    Intro
    e------------------------------
    B------------------------------
    G-7-99-777-6-7---7-99-444-2-7/9 repeat 2 times
    D-7-99-777-6-7-2-7-99-444-2-7/9
    A-5-77-555-4-5-2-5-77-222-0-5/7
    E--------------0---------------
    
    e---------------
    B---------------
    G-7-99-777-6-7--…
  • ---------------------------------------------------------------------|
    --------------------------------------------13-----------------------|
    ----------------10-10-12-12-12b14r12b14hold----12b14r12-12-10-12-10--|
    ---------------------------------------------------------------------|
    -7/8-8-10-10/12------------------------------------------------------|
    ---------------------------------------------------------------------|
    
    -------------------------------------|…
  • intro, moderate, follow guitar:
    G||------|-9-7-------.-----------------------------------------------|
    D||------|-----9-7---5--9-7-------.--9-7-----------------------------|
    A||-drum-|------------------9-7-5-7------9----2~-5~-7-5--------------|
    E||------|----------------------------------------------7-53~~--5~~-|
    B||------|-----------------------------------------------------------|
    
    G|--------------------------------9-7------.-----------------------|
    D|------------------------------------9-7--5--9-7-------.--9-7-----|
    A|------------------------------------------------9-7-5-7------9---|
    E|-2~~-3~~-----5-5-------------------------------------------------|
    B|----------X---X---2----3~~--5~~----------------------------------|
    
    G|------------------------------------------------------9-7------.--|
    D|----------------------------------------------------------9-7--5--|
    A|-2~~--5~~-7-5-----------------------------------------------------|
    E|--------------7-53~~-5~~-2~~-3~~---5--5--------------------------|
    B|-----------------------------------X--X---2--3~~-5~~~-------------|
    
    G|---------------------------------------------------------9-7------.--|
    D|--9-7-------.--9-7-------------------------------------------9-7--5--|
    A|------9-7-5-7------9--2~~-5~~-7-5------------------------------------|
    E|----------------------------------7-53~~--5--5----------------------|
    B|------------------------------------------X--X-----------------------|
    
    G|------------------------------------------||
    D|--9-7----------9-7------------------------||
    A|------9-7-5-7------9---2~-3~-7-5----------||
    E|---------------------------------7-5s3~--||…
  • C#m                 F#                 G#m 
    Улицы уснули спят улицам надо немного тепла
    C#m                 F#                 G#m 
    Улицы будто бы ма ма мамы нам смотрят в глаза
    C#m                 F#…
  • D A Hm G
    D A Hm G
    
    D          A
    Babylon отец, Babylon их мать
    Hm           G
    Бай Babylon бай, нам их не понять
    D            A
    Babylon на пол пути, Babylon опять
    Hm           G
    Ой я ой Babylon мой.
    
    D…
Наверх