Аккорды Tracktor Bowling - Шаги по стеклу

Добавлено: @romashka
Дата добавления: 13 Августа 2019г.
Рейтинг:
0.0
Просмотров: 13
Транспонировать - +
Таба для куплетов:
Em
1------------|------------|------------|------------|------------|
2------8-----|------8-----|------8-----|------8-----|------8-----|
3---------9--|---------9--|---------9--|---------9--|------------|
4------------|------------|------------|------------|------------|
5---7--------|---7--------|---7--------|---7--------|---7--------|
6------------|------------|------------|------------|------------|

B11
1------------|------------|------------|
2------7-----|------7-----|------7-----|
3---------8--|---------8--|------------|
4------------|------------|------------|
5---9--------|---9--------|---9--------|
6------------|------------|------------|

C5
1-------------|-------------|-------------|
2------7------|------8------|------7------|
3---------8---|---------9---|-------------|
4-------------|-------------|-------------|
5---10--------|---10--------|---10--------|
6-------------|-------------|-------------|

  Em
Разве ты не слышишь
  
Это сердце, что бьется все тише…
  Em
Разве ты не слышишь
      D5                 C5 D5
Это сердце, оно бьется тише
  Em
Я жду, я не смею
  D5                          C5  D5
Все забыть… подскажи, как теперь мне…

Em  B11
Дышать…
Em       B11            C5       Em
Я… слышу боль… сквозь жалкие попытки
       B11              C5
Легче жить… сжигая в сердце
Em       B11            C5       Em
Яд… Выбрав роль… я приняла все пытки
   B11      C5        Em
И дрожу… шагая по стеклу…

  Em
Разве ты не слышишь
  D5                     C5 B5
Это сердце, оно бьется тише
  Em
Я жду, я не смею
  D5                         C5  B5
Все забыть… подскажи, как теперь мне…

      Em   D5 *  B5   C5   D5 B5
Дышааааааа-аааа-аааа-аааать…
      Em   D5 * B5   C5   D5 B5
Дышааааааа-аааа-аааа-аааать…
  Em              D5 *
Сожму в ладони время
   B5     C5           D5   
Согревая все, во что я верю
 B5      Em   D5 *  B5 C5 D5 B5
Только дай мне дышать…

  Em      B11         C5           Em
Дышать… кем больней…виновным или жертвой…
       B11           C5
Стать… мишенью для своей
Em       B11           C5            Em
Мечты… быть сильней… убить надежду первой
   B11      C5       
Ведь лишь ей могла…

      Em   D5 *  B5   C5   D5 B5
Дышааааааа-аааа-аааа-аааать…
      Em   D5 *  B5   C5   D5 B5
Дышааааааа-аааа-аааа-аааать…
  Em            D5 *
Сожму в ладони время
   B5     C5           D5   
Согревая все, во что я верю
 B5     Em   D5 *  B5  C5 D5 B5
Только дай мне  дышать…

      Em   D5 *  B5   C5   D5 B5
Дышааааааа-аааа-аааа-аааать…
      Em   D5 *  B5   C5   D5 B5
Дышааааааа-аааа-аааа-аааать… 
      Em   D5 *  B5   C5   D5 B5
Дышааааааа-аааа-аааа-аааать…
      Em   D5 *  B5   C5   D5 B5
Дышааааааа-аааа-аааа-аааать… 

Припевы и проигрыши играются на powerchords.

D5 * - [059xxx].
comments powered by Disqus
Наверх