Аккорды «Trapt»

Trapt
Trapt — Alternative Rock / Hard Rock-группа, созданная в Лос Гатос, Калифорния, в 1997 году. Идея создания группы «Trapt» созревала в голове школьных приятелей Криса Брауна (Chris Brown) и Питера Черелла (Peter Charell) еще в середине девяностых, под влиянием таких коллективов, как Korn, Soundgarden и Metallica. C появлением гитариста Саймона Орманди (Simon Ormandy) в 1997 году трио приступило к записи своих первых демо и выступлениям в окрестностях Южной Калифорнии. В течение года «Trapt»… Читать полностью... Trapt — Alternative Rock / Hard Rock-группа, созданная в Лос Гатос, Калифорния, в 1997 году. Идея создания группы «Trapt» созревала в голове школьных приятелей Криса Брауна (Chris Brown) и Питера Черелла (Peter Charell) еще в середине девяностых, под влиянием таких коллективов, как Korn, Soundgarden и Metallica. C появлением гитариста Саймона Орманди (Simon Ormandy) в 1997 году трио приступило к записи своих первых демо и выступлениям в окрестностях Южной Калифорнии. В течение года «Trapt» открывали концерты таких групп, как Papa Roach, Spike 1000 и Dredg, но приближающееся окончание музыкантами группы высшей школы ставило под сомнение будущее «Trapt». После выпуска за свой счет очередной записи «Amalgamation» в 1998 году участники коллектива Simon Ormandy и Chris Brown продолжили свое образование в Санта-Крузе. Данное обстоятельство стало испытанием для группы, не сломившим серьезность намерений участников «Trapt» в продолжении своей музыкальной карьеры. Музыканты встречались по уик-эндам, проводя время за репетициями и освоением концертных площадок. В начале 2000 года «Trapt» выпустили очередной релиз «Glimpse» в надежде на то, что их все же заметят представители рекорд-лейблов. В конце года, после нескольких концертов, удача вроде бы и повернулась к музыкантам лицом: пошли разговоры о контракте, но они так же быстро закончились, как и начинались, лишь спустя восемь недель музыкантам предложил контракт лейбл «Immortal». В итоге все участники «Trapt» бросили свое дальнейшее образование в пользу будущего группы. Вскоре уроженец Сиэтла Aaron Montgomery прибыл в состав «Trapt» с целью занять место барабанщика. После выступления на благотворительном концерте, посвященном американским событиям 11 сентября, музыкантов заметила компания «Warner Bros.», предложившая группе контракт в конце 2001 года. Данное событие стало подтверждением того, что, казалось бы, несбыточная мечта музыкантов все же сбылась. Спустя год участники «Trapt» приступили к подготовке и записи материала для своего первого официального дебюта, провозглашенного в честь группы, который увидел свет весной 2002 года. Через три года музыканты выпустили "Someone in Control", который достиг золотого статуса по продажам. В 2007 году вышел live-альбом с двумя студийными композициями "Stay Alive" и "Everything To Lose". 10 июня 2008 года состоялся релиз сингла "Who's Going Home With You Tonight?". Третью студийную пластинку "Only Through the Pain" Trapt выпустили 5 апреля 2008 года, которая дебютировала на 18 строчке Billboard 200 и на 4-ой the Rock Album Chart. За первую неделю было продано 25 000 копий. По состоянию на 25 сентября 2008 года было реализовано 60 895 копий "Only Through the Pain". Позже Trapt отправились в тур в поддержку "Only Through the Pain" совместно с Hinder. Вторым синглом с альбома была выбрана песня "Contagious". В марте Trapt отправились в тур The Contagious Tour совместно с такими группами, как Red, Halestorm, Inept и Since October. Состав группы в данное время: Chris Brown Peter Charell Aaron Montgomery Robb Torres Бывшие участники группы: David Stege Robin Diaz Simon Ormandy Rick Sanders Скрыть...
Популярные аккорды Trapt:
алфавиту | просмотрам | случайно
  • *=Harmonic
    
    Intro
    E---------------------------------------------------------------|
    B---------------------------------------------------------------|
    G---------------------------------------------------------------|
    D----2---4---7-------2---4---------2---4---7-----2---4------7*--|
    A----0---2---5-------0---2--4------0---2---5-----0---2---4------|
    E---------------------------2----------------------------2------|…
  • 7 String:
    B E A D G B E
    
    < > = harmonics
    
    
    Intro:
    
    e---------------------------------------------------------------
    b------7--7-------7--7------------5--5-------5--5---------------
    g-----------------------------------------------------7--5--5---
    d-----------------------------------------------------7--5--5---
    a-----------------------------------------------------5--3--3---
    e-7-7--------7-7-------------5-5--------5-5-----------5--3--3---
    b-5-5--------5-5-------------3-3--------3-3---------------------…
  • INTRO			        CHORUS
    
    Gt.1                            Gt.1 & 2 
    [A]                          6X [B]	                  4X [C]          1X
    |----0-------------0-------|------------------------|-------------0---0-|
    |------4---4---------4---4-----|------------------------|-------------0-0---|
    |----4-------4-----4-------4---|-6-6--2-2-2--4-4--4-6-2-|-6-6--4-4--2-2-----|
    |------------------------------|-6-6--2-2-2--4-4--4-6-2-|-6-6--4-4--2-2-----|
    |--4-----------4-2-----------2-|-4-4--0-0-0--2-2--2-4-0-|-4-4--2-2--0-0-----|
    |------------------------------|-4-4--0-0-0--2-2--2-4-0-|-4-4--2-2--0-0-----|
    Gt.2…
  • Standard Tuning
    
    Intro
    (Play twice)              
             B                 B                             
    |-7-7-7-7-7-7-7-7-|-7-7-7-7-7-7-7--7-|-----------------|-------------|
    |-7-7-7-7-7-7-7-7-|-7-7-7-7-7-7-7--7-|-----------------|-------------|
    |-8-8-8-8-8-8-8-8-|-8-8-8-8-8-8-8--8-|-8-8-8-8-8-8-8h9-|11-9-8-9-8-4-|
    |-9-9-9-9-9-9-9-9-|-9-9-9-9-9-9-9h11-|-9-9-9-9-9-9-9-9-|-------------|
    |-9-9-9-9-9-9-9-9-|-9-9-9-9-9-9-9--9-|-6-6-6-6-6-6-6-6-|-------------|
    |-7-7-7-7-7-7-7-7-|-7-7-7-7-7-7-7--7-|-----------------|-------------|…
  • E-------------------------|
    B-------------------------|
    G-------------------------|
    D---11---11---11---11-----|
    A---9----9----9----9------|
    E---7----7----7----7------|
    
    
    E-------------------------------------|
    B-------------------------------------|
    G-------------------------------------|
    D---------------------------------6---|…
  • Intro/Verse
    G|------------------------------------|----|----------------
    D|------4-----5-4-2------4-----4-7-0--|----|------5------9--
    A|--222---222--------000---000--------|-x2-|---------000----
    E|------------------------------------|----|--333-----------
    
    Bridge…
  • Asus2
    x x 0 2 4 5 x
    	
    Fsus2
    x 3 3 3 0 x x
    	
    G5
    x 3 3 3 x x x
    	
    A
    x x 0 7 6 5 x
    
    C/A
    x x 0 10 9 8 x
    	
    Fmaj7/A
    x x 0 3 2 1 0
    	
    Cadd9/A
    x x 0 10 9 8 10
    	
    Fadd9/A
    x x 0 3 2 1 3
    
    A5
    0 2 0 2 x x x
    	
    Bb5
    8…
  • Tuning: eadg
    
    INTRO
    G|---------------------|
    D|---------------------|REPEAT AS MANY TIMES AS NEEDED
    A|-2p0-2p0-2-0h2-0h2-2-|
    E|---------------------|
    
    chorus
    G|---------------------------|
    D|---------------------------|repeat…
  • Guitar Tuned E A D G B E
    
    Into/Verse:
    E:---------------------------------
    B:---------------------------------
    G:----9----------------------------
    D:------10---10-9---10-9------12-10
    A:--0------8------8------8/10------
    E:---------------------------------
    
    Chorus:
    E:--------------------------------
    B:--------------------------------
    G:--------------------------------
    D:--------------------------------
    A:--7--7-7--3--3-3--8--8-8--5--5-5
    E:--5--5-5--1--1-1--6--6-6--3--3-3
    
    E:------------------…
  • standerd tuning
    
    
    clean
    -------------------------------|
    -------------------------------|
    -4--4---5--5-5-----------------|
    -2--2---2--2-2-----------------|
    -0--0---0--0-0-----------------|
    -------------------------------|…
  • D Standard: High:D
                     A
                     F
                     C
                     G
                     D
     
    Intro A
    |----------------------------|
    |----------------------------|
    |------------10----------7--8|
    |-----10---------10----------|
    |--------10----------10------|
    |--8-------------------------|…
  • Tuning: Standard
    
    Introduction [0:00-0:03]
    e|-------------------------------|
    B|---------17-15--------------15-|
    G|--------------16---------------|
    D|-14-17-14-----------14-17-14---| x2
    A|-------------------------------|
    E|-------------------------------|
    
    Introduction…
  • Tuning:1E 2B 3G 4D 5A 6E
    
    key
    P=pull off
    H=hammer on
    =slide up
    /=slide down
    
    
    ------------------------------------------------|
    ------------------------------------------------|
    -------0-----------------------0--------0---0---|
    -----4---4--------------------------------------|…
  • Tuning: Standard
    
    Introduction (Distortion) [0:00-0:16]
    e|--------------------------|
    B|--------------------------|
    G|-5-5-5-5------------------|
    D|-5-5-5-5--2-2--5-5-5-5--2-| x7
    A|-3-3-3-3--2-2--5-5-5-5--2-|
    E|----------0-0--3-3-3-3--0-|
    
    Pre-Verse…
  • Tuning: Drop-C (CGCFAc)
    
    Introduction [0:00-0:07]              [0:08-0:10]
    c|--------------------------------|    c|------|
    A|--------------------------------|    A|------|
    F|--------------------------------|    F|------|
    C|-99-0-9-10-9-0-9-12-9-0-9-10--9-|…
  • Tuning: Standard (EADG)
    
    Rest 3 bars
    
    Intro
    
    G|----------------|
    D|----------------|
    A|----------------|
    E|------------5420|
    B|----------------|
    
    Verse
    
    G|----------------|----------------|----------------|----------------|
    D|----------------|--------------2-|----------------|----------------|
    A|xx5-5-55---x5---|---------x2h4---|-x5-5-55---x5---|----------------|
    E|----------------|xx5-5-55--------|----------------|xx5-5-55---x5420|
    B|----------------|----------------|----------------|----------------|
    
    G|----------------|----------------|----------------|----------------|
    D|----------------|--------------2-|----------------|----------------|
    A|xx5-5-55---x5---|---------x2h4---|-x5-5-55---x5---|----------575~--|
    E|----------------|xx5-5-55--------|----------------|xx5-5--557------|
    B|----------------|----------------|----------------|----------------|
    
    Pre-Chorus
    
    G|----------------|----------------|----------------|------------9---|
    D|----------------|----------------|----------------|---------7------|
    A|5~--------------|7~--------------|----------------|----------------|
    E|----------------|----------------|2~--------------|5~------5--5----|
    B|----------------|----------------|----------------|----------------|
    
    G|----------------|----------------|----------------|----------------|
    D|----------------|----------------|----------------|----------------|
    A|5~--------------|7~--------------|----------------|----------------|
    E|----------------|----------------|2~--------------|5~--------------|
    B|----------------|----------------|----------------|----------------|
    
    Chorus…
  • Tuning: Standard
    
    There are two guitars. Guitar 1 is lead with riffs, Guitar 2 is rhythm with lots of chords.
    
    Intro (0:00)
    Guitar 1
                                 * pluck   *
    e|---5-5-5-5----------5-5--5-2-2-2-2-2-2----------------|…
  • Tuning: Standard
    
    Introduction [0:00-0:40]
    e|------------------------------------------|
    B|----6--6--6--6-6--------------------------|
    G|---7--7--7--7-7-7----9---9---9---9---9----|
    D|--7--7--7--7----------10--10--10--10--10--|…
  • e|---------------------------------------------------------------------|
    B|--5---5---5---5----5---5---5---5---5---5---5---5----5---5---5---5----|
    G|----4-------4---4----4-------4---4---4-------4---4----4-------4---4--|
    D|---------------------------------------------------------------------|
    A|-------------------0-----0---------4-----4----------4-----4----------|
    E|--0-----0------------------------------------------------------------|…
  • Tuning: Standard EADGBE
    
    Intro/Verse
    |-----------------------------------------------|
    |----1-0-1------1-0-1------1-0-1------1-0-1-----|
    |---2-2---2----2-2---2----2-2---2----2-2---2----|Repeat 6x total
    |----------2--3-------3--2-------2--3-------3---|
    |--0--------------------------------------------|
    |-----------------------------------------------|
    
    This…
  • Tuned in Drop Db
    
    Intro
    |------------|
    |------------|
    |------------| The number of times and the timing is easy to figure out.
    |5h6h5h6h5h6h|
    |------------|
    |------------|
    
    Main Riff/Chorus
    |-------------------------------------------------------------|
    |-------------------------------------------------------------|
    |-------------------------------------------------------------|
    |--------------------------8-8-8--8-8--8h10-10-10---10-10-10--|
    |--------------------------8-8-8--8-8--8h10-10-10---10-10-10--|
    |12/--0--3p0--12/--0--3p0--8-8-8--8-8--8h10-10-10---10-10-10--|
    
    Verse
    |----------------------------------|---------------------------------|
    |----------------------------------|---------------------------------|
    |----------------------------------|------------------------10-------|…
  • Tuning: D
    
    Key: 
    8~ = Hold Out
    (11/13) = Played w/o strumming with reverb
    
    Intro/Verse: (Sounds best finger style with distortion and reverb)
    |------------------------------------|
    |--8~---11/13(11/13)---8~---4/1(4/1)-|
    |--x-------------------x-------------|
    |-10~-----------------10~------------|…
  • Intro:
    |-----------------------------------------------------|
    |-----------------------------------------------------|
    |----7/99-----7/9999-----------------1010101010101010-|
    |-77-x--x-7-7-x--xxx-1010101010101010x-x-x-x-x-x-x-x--|
    |-77-5/77-7-7-5/7777-10101010101010108-8-8-8-8-8-8-8--|
    |-55------5-5--------8-8-8-8-8-8-8-8------------------|
    
    |---------------------------------------------|
    |---------------------------------------------|
    |----7/99-----7/9999--------------------------|
    |-77-x--x-7-7-x--xxx-101010101010101055555555-|
    |-77-5/77-7-7-5/7777-101010101010101055555555-|
    |-55------5-5--------8-8-8-8-8-8-8-8-33333333-|
    
    Verse:
    |------0-------0-------0-------0-|
    |-----3-------3-------3-------3--|
    |----0-------0-------0-------0---|
    |--------------------------------|
    |-0-------3----------------------|
    |-----------------3-------3------|
    I…
  • Tuning: Db Ab Db Gb Bb eb (Half-step, Drop D)
    
    Introduction [0:00-0:50]
    eb|-----------------------|
    Bb|-----------------------|     (This is more or
    Gb|-7-x-7-x-7-x-7-x-7-7p5-|      less what is
    Db|-----------------------|…
  • Tuning - Drop D
    
    Intro
    ----------------------------------------------------------------------------------------------------------|
    ---7*-----------------------------------------------------------------------------------------------------|
    ----------------------------------------------------------------------------------------------------------|
    ------------9-9-----9---9-----9-9----9-9-9-9--------13-13-----13--13------4-4-----4-4-4-4-…
  • Tuning: Standard
    
    Introduction (distortion) [0:07-0:14]
    e|------------------------------------|
    B|------------------------------------|
    G|------------------------------------|
    D|-11--11--11-9-9-11--11--11-11-9-9-9-|…
  • Standard Tuning
    
    Intro
    E|--0----0----3----0----0---------------------------------------------|
    B|--0----5----0----0----0---------------------------------------------|
    G|--7----6----2----2----2---------------------------------------------|
    D|--5----6----2----4----4---------------------------------------------|
    A|--7----4----0----4----2---------------------------------------------|
    E|--0-----------------------------------------------------------------|
    
    Guitar…
  • No capo
    
    Chords:Am
           C
           G
           D
           F
           A
    
    Into: Am, C, G, D
    
      
      Verse 1:
    Am
      Sharp pain when you breathe in deep
    C
      no one to catch your insecurities
    Am
      you cling to the sadness…
  • Tuning: Standard (EADG)
    
    The intro is a heavily distorted bass, just to clarify.
    
    Intro
    
    G|----------------|----------------|----------------|----------------|
    D|----------------|----------------|----------------|----------------|
    A|----------------|----------------|----------------|----------------|
    E|22-222-222-222-2|22-222-222-222--|22-222-222-222-2|22-222-222-222--|
    
    Verse…
  • intro(pre chorus):
    e ------------------------------|
    b ------------------------------|
    g ------------------------------|
    D 7-7-7-/-9-7-7-7-/-9-9-9-\-4-4-|  3x
    A 5-5-5-/-7-5-5-5-/-7-7-7-\-2-2-|
    E ------------------------------|
    
    e…
  • Tuning: Standard
    
    Introduction (Clean) [0:01-0:30]
    e|---0-------0------0------------|
    B|-------3---------------3-------|
    G|-----4---4-----------4---4-----|
    D|---------------------------5-4-| x6
    A|-2-----------------------------|
    E|----------------3--------------|
    
    Verse…
  • Tuning: Drop B (B,F#,B,E,G#,C#,)
    
    Intro Part 1: Clean, volume swell.
    |-15--15------------|
    |---15--15----------|
    |-----------12--12--| Play several times
    |-------------12--12| until song breaks out
    |-------------------|
    |-------------------|
    
    Intro:…
  • Tuning: Standard
    
    Introduction (Clean) [0:06-0:31]
    e|-------------------------------|
    B|-------------------------------|
    G|-------------------------------|
    D|-11-11-11-1111-/-13--14-14-7-7-| x6
    A|-11-11-11-1111-/-13--14-14-7-7-|
    E|-9--9--9--9-9--/-11--12-12-5-5-|
    
    Verse…
  • Tuning: Standard 5 string (BEADG)
    Scale:  B Minor
    
    Intro
    
    G|----------------|
    D|----------------|
    A|------------75--|
    E|-----------5--7-|
    B|----------------|
    
    Verse
    
    G|----------------|----------------|----------------|----------------|
    D|----------------|----------------|----------------|----------------|
    A|--------------5-|----------5-5---|--------------5-|----------5-5---|
    E|5-7-7-------55--|5~-------3-3----|5-7-7-------55--|5~-------3-3----|
    B|-----------5----|--------3------5|-----------5----|--------3------5|…
  • Em7    G5    Csus  A5  
    e|-3-----3------3-----3-|
    B|-3-----3------3-----3-|
    G|-0-----0------0-----0-|
    D|-2-----0------2-----2-|
    A|-2-----2------3-----0-|
    E|-0-----3------X-----X-|
    
    
    Em7       G5         Csus  A5…
  • Standard tuning
    
    (0:04) Intro, Verse 1
    
    e|-----------------------------------------------------------------------------|
    B|-----------------------------------------------------------------------------|
    G|--6-*6--6-*6--6-*6---6-------6-*6-6---------6--5--6--------------------------|
    D|6------------------6---6---6--------6----6-----------------------------------|
    A|-------------------------4-------------4-------------------------------------|
    E|-----------------------------------------------------------------------------|x6
    
    
    (0:52)…
  • G C Am (Am-Bm-C)C D G
    Chole Jodi Jabi Dure Sharthopor Amake keno Jochona Dekhali
    G C Am(Am-Bm-C)C D G
    Hobi Jodi Nao Bhashiye Deshantor Pathorer Buke Phool Keno Futali
    C Am G C Am G
    Amari Shimanay Sheto tor Chaya Shekhane…
  • G                 E                   A 
    Do we know how to  get the message across
                           C               G
    We turn the lights off  to find a way out
                           E                   A
    No time…
  • Tuning: Standard (EADG)
    
    Intro / Chorus
    
    G|----------------|----------------|----------------|----------------|
    D|----------------|----------------|----------------|----------------|
    A|----------------|----------------|2--2------------|----------------|
    E|----------------|3--3--3--3--3---|------2--2------|3--3--3--3--3---|
    
    G|----------------|----------------|----------------|----------------|
    D|----------------|----------------|----------------|----------------|
    A|2--2------------|----------------|2--2------------|----------------|
    E|------2--2------|3--3--3--3--3---|------2--2------|3--3--3--3--3---|
    
    Verse
    
    G|----------------|----------------|----------------|----------------|
    D|----------------|----------------|----------------|----------------|
    A|2-2-2-2---------|----------------|2-2-2-2---------|----------------|
    E|----------2---3-|--3-3-----3-3---|----------2---3-|--3-3-----3-3---|
    
    G|----------------|----------------|----------------|----------------|
    D|----------------|----------------|----------------|----------------|
    A|2-2-2-2---------|----------------|2-2-2-2---------|----------0-5-7-|
    E|----------2---3-|--3-3-----3-3---|----------2---3-|--3-3-----------|
    
    G|----------------|----------------|----------------|----------------|
    D|----------------|----------------|----------------|----------------|
    A|2-2-2-2---------|----------------|2-2-2-2---------|----------------|
    E|----------2---3-|--3-3-----3-3---|----------2---3-|--3-3-----3-3---|
    
    G|----------------|----------------|----------------|----------------|
    D|----------------|----------------|----------------|----------------|
    A|2-2-2-2---------|----------------|2-2-2-2---------|----------------|
    E|----------2---3-|--3-3-----3-3---|----------2---3-|--3-3-----3-3-3-|
    
    Pre-Chorus
    
    G|----------------|----------------|----------------|----------------|
    D|----------------|----------------|----------------|----------------|
    A|----------------|----------------|----------------|5-5-5-5-5-5-5-5-|
    E|5-5-5-5-5-5-5-5-|0-0-0-0-0-0-0-0-|3-3-3-3-3-3-3-3-|----------------|
    
    G|----------------|----------------|----------------|----------------|
    D|----------------|----------------|----------------|----------------|
    A|----------------|----------------|----------------|----------------|
    E|5-5-5-5-5-5-5-5-|0-0-0-0-0-0-0-0-|3-3-3-3-3-3-3-3-|5-5-5-5-5-5-5-5-|
    
    Chorus
    
    Verse
    
    Pre-Chorus
    
    Chorus
    
    Bridge
    
    G|----------------|----------------|----------------|
    D|----------------|----------------|----------------|
    A|----------------|----------------|----------------|
    E|2-2-2-2-2-2-2-2-|0-0-0-0-0-0-0-0-|0-0-0-0-0-0-0-0-|
    
    G|----------------|----------------|----------------|----------------|
    D|----------------|----------------|----------------|----------------|
    A|----------------|----------------|----------------|----------------|
    E|3-3-3-3-3-3-3-3-|2-2-2-2-2-2-2-2-|0-0-0-0-0-0-0-0-|0-0-0-0-0-0-0-0-|
    
    G|----------------|----------------|----------------|----------------|
    D|----------------|----------------|----------------|----------------|
    A|----------------|----------------|----------------|----------------|
    E|3-3-3-3-3-3-3-3-|2-2-2-2-2-2-2-2-|0-0-0-0-0-0-0-0-|0-0-0-0-0-0-0-0-|
    
    G|----------------|----------------|----------------|----------------|
    D|----------------|----------------|----------------|----------------|
    A|----------------|----------------|----------------|----------------|
    E|3-3-3-3-3-3-3-3-|2-2-2-2-2-2-2-2-|0-0-0-0-0-0-0-0-|0-0-0-0/12121212|
    							These…
  • Tuning: Standard 5 string (BEADG)
    
    Intro
    
    G|----------------|----------------|----------------|----------------|
    D|----------------|----------------|----------------|----------------|
    A|----------------|----------------|----------------|----------------|
    E|----------------|----------------|----------------|----------------|
    B|2-0-2-022-0-2---|2-0-2-022-0-2---|2-0-2-022-0-2---|2-0-2-022-0-0000|
    
    Verse…
Наверх