Аккорды «Treble Charger»

Treble Charger
История канадской группы Treble Charger началась в не очень далеком 1994 году. Трое парней встретились в средней школе в канадском Онтарио. Их звали Грег Нори (вокал, гитара, клавишные), Билл Приддл (гитара, бэк-вокал) и Рози Мартэн (бас, клавишные). Позвав с собой Морриса Палтера в качестве ударника, они решили организовать группу, наспех назвав её NC-17 (такая аббревиатура в Канаде и США ставится на коробки с фильмами, которые не рекомендуется смотреть детям до 17 лет). Не успев набрать материала… Читать полностью... История канадской группы Treble Charger началась в не очень далеком 1994 году. Трое парней встретились в средней школе в канадском Онтарио. Их звали Грег Нори (вокал, гитара, клавишные), Билл Приддл (гитара, бэк-вокал) и Рози Мартэн (бас, клавишные). Позвав с собой Морриса Палтера в качестве ударника, они решили организовать группу, наспех назвав её NC-17 (такая аббревиатура в Канаде и США ставится на коробки с фильмами, которые не рекомендуется смотреть детям до 17 лет). Не успев набрать материала на полноценный LP, парни нарвались на угрозы судебной расправы со стороны американской группы с точно таким же названием. Делать нечего, пришлось придумывать новое название для группы, коим и стало «Treble Charger». Тем временем накопленного материала как раз стало хватать на альбом, и, не долго думая, парни создали свой собственный лейбл Smokin’ Worm (Где ж им иначе записываться? Никто из тамошних звукозаписывающих компаний и слышать о молодой группе не желал, пока те не сотворят что-нибудь эдакое.), на котором и выпустили свой дебютный альбом, угробив в итоге на все около 5 000 вечнозеленых. Лонгплей по доброй традиции назвали NC-17. Вот тут-то на них и соизволил взглянуть один из местных инди-лейблов, Sonic Unyon, который переиздал NC-17, чем обеспечил диску славу самой продаваемой в Канаде инди-пластинки. Баллада «Red» с этого диска стала безумно популярной на коллежском радио и даже на Much Music (это такая канадская музыкальная телесеть). Началась довольно успешная концертная деятельность группы. Скрыть...
Популярные аккорды Treble Charger:
алфавиту | просмотрам | случайно
  • Intro (come in on 3rd time)
    
    G|---------------------------------------|
    D|---------------------------------------|  (x2)
    A|-----6-7-0-3h4-0-3h4-0-0-7h11-0-0-9h11-|
    E|-0-0-----------------------------------|
    
    Verse
    G|---------------------------|
    D|---------------------------|…
  • Intro
    e|-------------------------------------------|
    b|-------------------------------------------|
    g|------6-7-7--------7-6-6--------6-7-7------|
    d|-7-7--6-7-7---9-9--7-6-6---7-7--6-7-7---9~-|
    a|-7-7--4-5-5---9-9--5-4-4---7-7--4-5-5---9~-|
    e|-5-5----------7-7----------5-5----------7~-|
    
    Intro…
  • Intro
    (I'm pretty sure the background part isn't right)
    
    Background Guitar
    E|-O-5-O-4-O-5-O-4-O-5-O-4-O-5-O-4-O-5-O-4-O-5-O-4----|(REPEAT UNTIL CHORUS)
    B|----------------------------------------------------|
    G|----------------------------------------------------|
    D|----------------------------------------------------|
    A|----------------------------------------------------|
    E|----------------------------------------------------|
    
    Rythym…
  • VERSE:
    G------------------------------------
    D------------------------------------
    A-0---4----2----0h2-2----------------
    E------------------------------------
    just keep doin that over and over
    
    CHORUS:
    G------------------------------------
    D------------------------------------
    A-0-0-0-0-------2-2-2-2--444--222----
    E--------0-0-0-0---------------------
    
    (can…
  • INTRO (clean) x3
    E------------3------------2---2-----------------------------
    B--------------3--------3-------3----------1---1-1p0--------
    G--------0-------0----2-----------2------0-----------0------
    D------0------------0-------0----------2--------------------
    A----2-------------------------------0-------0--------------
    E--3-------3------------------------------------------------
    
    (0:30)…
  • chords used:
    E - 022100
    F - 133211
    F#m - 244222
    A - x02220
    Dm - xx0231
    
    verse:
    
    E|---------------------------------|
    B|---------------------------------|
    G|-----2-------2-------2-------2---|
    D|---2---2---2---2---2---2---2---2-|
    A|-0-------0-----------------------|
    E|-----------------2-------2-------|
    
    chorus:…
  • Intro-
    
    |---------------------------------
    |-----------------2-2-2-2-2-2-2-2-
    |-2-2-2-2-4-4-4-4-----------------
    |---------------------------------
    
    verse
    
    |----------------------------------------------------------------
    |----------------------------------------------------------------
    |2-2-2-2-2-2-2-2-2-2-2-2-2-2-2-2-0-0-0-0-0-0-0-0-4-4-4-4-4-4-4-4-
    |----------------------------------------------------------------
    
    pre…
  • e|--------------------------|
    B|----3------0------1-------|
    G|--5---5--2---2--0---0-0~--|
    D|--------------------------|
    A|--------------------------|
    E|--------------------------|
    
    E|--1----4--|
    B|--1----4--|
    G|--3----6--|
    D|--3----6--|
    A|----------|
    E|----------|
    
    E|--------|
    B|--------|
    G|--------|
    D|--6--5--|
    A|--6--5--|
    E|--4--3--|…
  • Verse-I know that i have to sleep....
    
    |----------------
    |--------0-0-0-0-
    |0-0-0-0--------- 
    |----------------
    
    Prechorus-i think ive been cast in the wrong play
    
    |------------------------------------
    |------------------------------------
    |0---0--0-0--------0---0--0----------
    |----------1---1--1----------1---1--1-
    
    Chorus-I…
  • chords used:
    F# - 244xxx
    G - 3x0033
    A - x02220
    Bm - x24432
    D - xx0232
    
    intro:
    
    E|----------------------------------------------------------------|
    B|----------------------------------------------------------------|
    G|-16-16-16-16-16-14-14-14-14-14-14-14-11-11-11-11-11-9-9-9-7-7-7-|
    D|-0--0--0--0--0--0--0--0--0--0--0--0--0--0--0--0--0--0-0-0-0-0-0-|
    A|----------------------------------------------------------------|
    E|----------------------------------------------------------------|
    
    E|-------------------------------------------------------------------|
    B|-------------------------------------------------------------------|
    G|-16-16-16-16-16-14-14-14-14-14-14-14-11-11-11-11-11-12-12-12-9-9-9-|
    D|-0--0--0--0--0--0--0--0--0--0--0--0--0--0--0--0--0--0--0--0--0-0-0-|
    A|-------------------------------------------------------------------|
    E|-------------------------------------------------------------------|
    
    verse:
    
    E|--------------------------------------------------------|
    B|--------------------------------------------------------|
    G|-9-9-9-9-9-11-11-11-11-11-11-11-7-7-7-7-7-4-4-4-4-4-4-2-|
    D|-0-0-0-0-0-0--0--0--0--0--0--0--0-0-0-0-0-0-0-0-0-0-0-0-|
    A|--------------------------------------------------------|
    E|--------------------------------------------------------|
    
    pre-chorus:…
  • INTROVERSE 1
    
    Gtr 1 [Riff 1A]
    e|------------------------------------------------------|
    B|-------0------------0------------0-------------0------|
    G|-----4---4--------2---2------------0-------------2----|
    D|---2-------2----2-------2------2------2------2------2-|
    A|-4------------0--------------2-------------0----------|
    E|---------------------------0-------------2------------|
    
    Gtr…
  • verse/solo
    |---------------------------------------------------------
    |---------------------------------------------------------
    |---------------------------------------------------------
    |2--2-2-2-2-2-2-5--5-5-5-5-5-5-0--0-0-0-0-0-0-0-0-0-0-0-0-
    
    prechorus…
  • Inrto:  A  C#   F#  A5
    
    E--------------------|-------------------------------5-|
    B--5^7--5------------|-------------5^7--5--------------|
    G----------7--5--7---|----------------------7--5--7----|
    D------------------7-|-NEXT…
  • Intro:
    |-----------------------------------------------------------------
    |-----------------------------------------------------------------
    |-----------------------------------------------2---2-2-2-2-2-2-2-
    |-4--4-4-2--2-2---2-2-2-2-2-2-2---4--4-4-2--2-2-------------------
    
    verse:
    |---------------------------
    |---------------------------
    |------O------O------O--O-O-
    |-2--2---O--O---2--2--------
    
    Prechorus/during…
  • intro/verse/during guitar solo:
    |---------------------------------
    |---------------------------------
    |-3-3-3-3-------------------------
    |---------O-O-O-O-1-1-1-1-4-4-4-4-
    
    Interlude(verse and chorus)
    
    |---------------------------------
    |---------------------------------
    |-6-6-6-6-6-------6-6-6-6-6-6-6-6-
    |---------------------------------
    
    chorus
    |---------------------------------
    |---------------------------------
    |-----------------6-6-6-6-6-6-6-6-
    |-6-6-6-6-4-4-4-4-----------------
    
    interlude…
  • Standard E tuning:
    VERSE 1
    (1)
    Guitar 2 intro
    
    
    I--2---2---3--I
    I--3---2---3--I
    I--2---4---0--I
    I--0---4---0--I
    I--0---2---2--I
    I--0-------3-—I
    (2)
    Guitar 1 (palm mute) Distortion
    
    I—-----------------I
    I------------------I
    I—-7---------------I
    I—-7---9---10---5--I
    I—-5---9---10---5--I
    I------7---8----3--I
    (3)
    I—---------------------I
    I----------------------I
    I—-7-------------------I
    I—-7---9---10---5---7--I
    I—-5---9---10---5---7—-I
    I------7---8----3---5—-I…
Наверх