Аккорды «Tsunami Bomb»

Tsunami Bomb
Гитарист Matt McKenzie и вокалистка Emily Whitehurst (больше известная под творческим псевдонимом Agent M), до недавнего времени являвшиеся участниками безвременно почившей калифорнийской панк-группы Tsunami Bomb, вернулись из вынужденного отпуска, организовав трио под названием The Action Design, третьим участником которого стал Brett Friesen – по совместительству барабанщик коллектива Ariel Mile. Комментарии Emily Whitehurst по поводу новой группы: «После распада Tsunami Bomb наши поклонники… Читать полностью... Гитарист Matt McKenzie и вокалистка Emily Whitehurst (больше известная под творческим псевдонимом Agent M), до недавнего времени являвшиеся участниками безвременно почившей калифорнийской панк-группы Tsunami Bomb, вернулись из вынужденного отпуска, организовав трио под названием The Action Design, третьим участником которого стал Brett Friesen – по совместительству барабанщик коллектива Ariel Mile. Комментарии Emily Whitehurst по поводу новой группы: «После распада Tsunami Bomb наши поклонники настолько активно нас поддерживали, что я и Мэтт решили создать новый музыкальный проект. Теперь мы работаем вместе над написанием забавной музыки, в исполнении которой мы также решили задействовать синтезатор. К несчастью, на данный момент мы не располагаем какими-либо записями, чтобы вы могли оценить наше новое творчество прямо сейчас, но они появятся довольно скоро. Кроме того, мы хотим, чтобы вы знали, что наш проект не станет реинкарнацией Tsunami Bomb, а музыка не явится продолжением „The Definitive Act“: мы отдаём себе отчёт, что никто не заменит Tsunami Bomb и мы даже не будем пытаться сделать это – нам просто нравится играть новую музыку и мы надеемся, что вам она принесёт столько же положительных эмоции, что и нам». Скрыть...
Популярные аккорды Tsunami Bomb:
алфавиту | просмотрам | случайно
  • Intro with Drums
    
    e|---------------------------------------------------------------------------|
    B|---------------------------------------------------------------------------|
    G|---------------------------------------------------------------------------|
    D|----10~---------------------10-------8---------7----------5----------8-|
    A|----10~---------------------10-------8---------7----------5----------8-|
    E|----8~-----------------------8-------6---------5----------3----------6-|
    
    Solo…
  • INTRO
    
    G---------------------------------
    D---------------------------------
    A-------5555------------5555-7777-
    E-77---------5555-77--------------
    
    VERSE
    
    G-----------------------------------------------------------------
    D-----------------------------------------------------------------
    A-----------------5-5-5-5-5-5-5-5---------------------------------
    E-7-7-7-7-7-7-7-7-----------------5-5-5-5-5-5-5-5-3-3-3-3-5-5-5-5-
    
    CHORUS
    
    G--------------------------------------------------------------------
    D--------------------------------------------------------------------
    A------------------5555555555555555----------------------------------
    E-7777777777777777------------------5555555555555555-3-3-3-3-5-5-5-5-
    
    BREAK
    
    G-----------------------------------------------
    D-----------------------------------------------
    A------------555-5-555-5------------------------
    E-33-3-333-3-------------555-5-555-5-777-7-5555-…
  • verse:
    e---------------------------------------------------------------- 
    B---------------------------------------------------------------- 
    G---------------------------------------------------------------- 
    D----------------------------------------------------------------…
  • P.M. End P.M. 
    E---|--------------------------------------|---------------------------- 
    B---|--------------------------------------|---------------------------- 
    G---|--------------------------------------|--------7--8--8--10--8------…
  • INTRO
    G|---------------------------------------------------------
    D|---------------------------------------------------------  Comes in after 5 secs
    A|-3-5-7---------------------------------------------------
    E|---------------------------------------------------------
    
    G|---------------------------------------------------------
    D|---------------------------------------------------------…
  • INTRO 4x
    B|-xx----------------
    G|-xx------4---------
    D|-xx-77-4-4-77-9-5--
    A|-xx-77-4-2-77-9-5--
    E|-xx-55-2---55-7-3--
    then...
    e|---------------
    B|---------------
    G|-77777---------
    D|-77777---4-5---
    A|-99999---4-5---
    E|-------0-2-3---
    
    VERSE
    e|------------------------------
    
    B|------------------------------
    G|-77777777-77777777-44444444-5-
    D|-77777777-77777777-44444444-5-
    A|-55555555-44444444-22222222-3-
    E|------------------------------…
  • INTRO
    G|---------------------------------------------------------
    D|---------------------------------------------------------  x2
    A|----6~----6-6-6-----8-8----------------------------------
    E|-3~----3~-------6-6--------------------------------------
    
    VERSE…
  • Intro/Verse (listen to song for rhythm)
    G|----------------------------------------------|----------------|
    D|------3-2--------3-2--------3-2--------3-2----|----------------|
    A|--5-5-----4--4-4-----4--5-5-----4--4-4-----0--|-0-0-2-4-5------|
    E|----------------------------------------------|----------------|
    
    Pre-Chorus…
  • INTRO
    
    G---------------
    D---------------
    A-55-77-99-0000-
    E---------------
    
    VERSE
    
    G----------------------------------------
    D----------------------------------------
    A-5555--------------35-5555--------------
    E------5555-7777-57---------5555-77777777
    
    CHORUS…
  • Intro and Chorus
    E-----------------------              E----------------
    B-----------------------              B----------------
    G--------5-5------------  -  X4 then  G----------------
    D--3-3--5-5--6-6--5--8--…
  • Intro: X4
    G|---------------------------------------|
    D|---------------------------------------|
    A|---------------------------------------|
    E|--3-3-3--10-10-10--11-11-11--13-13-11--|
    
    Verse/Chorus:
    G|------------------------------------------|---------|
    D|------------------------------------------|---------|
    A|------------------------------------------|---------|
    E|-3-3-3-3-10-10-10-10-11-11-11-11-13-13-11-|--11-10--|…
  • INTRO
    G|---------------------------------------------------------
    D|---------------------------------------------------------  x4
    A|-5-5-5-5-5-5---------------------------------------------
    E|-------------3-3-5-5-5-5---------------------------------
    
    VERSE
    G|---------------------------------------------------------
    D|----------7>---------------------------------------------…
  • Tuning: standard
    
     intro and chorus:(im not indicating how many times you strum it. its pretty obvious)
    e|---------------------------------------------------------------------------|
    B|---------------------------------------------------------------------------|
    G|--------11-10--------------------------------------------------------------|
    D|-11--6--11-10--------------------------------------------------------------|
    A|-11--6--9--8---------------------------------------------------------------|
    E|-9---4---------------------------------------------------------------------|
    
    verse…
  • Standard tuning (EADGBE)
    
    Intro x3
    e--------------------------------------------------------------------
    B-------------------------3-4-3--------------------------------------
    G------5-5-------------5--------5-3------------5-5-------------------
    D--3-3-----3—5h3---3-3--------------6-5----3-3-----3-3-5h3---6-6-5-6-
    A----------------6-----------------------------------------6---------
    E--------------------------------------------------------------------
    
    e--------------------------------------------------------------------
    B--------------------------------------------------------------------
    G-3-5-3--------------------------------------------------------------
    D-------6-5-3--------------------------------------------------------
    A-------------6------------------------------------------------------
    E--------------------------------------------------------------------
    
    Verse…
  • INTRO 1
    G|---------------------------------------------------------
    D|---------------------------------------------------------  x3
    A|-------3>-1>---------------------------------------------
    E|-1>-4>---------------------------------------------------
    
    INTRO…
  • Intro
    G|-----------------------------|
    D|-----------------------------|
    A|-----------------------------|
    E|--3>-5>-6>-8>-6-8-10>-6-8-10-|
    Verse
    G|-------------------|----------------|
    D|-------------------|----------------|
    A|--2>-5>-4>--4-4-5--|-2>-5>-4>-8>-7>-|
    E|----------5>-------|----------------|
    Chorus
    G|----------------------------------------------------|
    D|----------------------------------------------------|
    A|----------------------------------------------------|
    E|-3>-5>-6>-5>-6>-5>--3>-5>-6>-5>-6>-8>-10>-6>-8>-10>-|
    
    Ending
    G|-----------------------|------------------------|
    D|-----------------------|------------------------|
    A|-2-2--5-5--4-4--0--4-5-|-2-2-5-5-4-4-----4-4-5-2|
    E|-----------------------|-------------5-5--------|…
  • E]------------------------------------------------------------|
    B]------------------------------------------------------------|
    G]------------------------------------------------------------|
    D]--5------5-----5------5-----5------5-----5------5-----------|
    A]--7--7-7---7-7-6--6-6---6-6-5--5-5---5-5-4--4-4---4-4-------|
    E]------------------------------------------------------------|
    
    E]------------------------------------------------------------|
    B]------------------------------------------------------------|
    G]------------------------------------------------------------|
    D]--2-2-2-2-2--5--5-5-5-5-5--5--7-7-7-7-7--5--8-8-8-8-8--5----|
    A]--0-0-0-0-0-----3-3-3-3-3-----5-5-5-5-5-----6-6-6-6-6-------|
    E]------------------------------------------------------------|
    
    E]------------------------------------------------------------|
    B]------------------------------------------------------------|
    G]------------------------------------------------------------|
    D]--7-7-777-8-8-888-9-9-999---7-5-4-5-5/4-5-------------------|
    A]--5-5-555-6-6-666-7-7-777-----------------5-71-------------|
    E]------------------------------------------------------------|…
  • Intro:
    e|-----|------5h6p5---5h6p5---5h6p5--|-5h6p5---|
    B|-----|------------5-------5--------|-------5-|
    G|--8~-|-----------------------------|---------|
    D|--7~-|--7-7------------------------|---------|
    A|--7~-|--7-7------------------------|---------|
    E|--5~-|--5-5------------------------|---------|
    [-Repeat…
  • Tuning: Standard
    
    INTRO 
    |------------------------------------------------------------|
    |-------5-6-5---5--------------------------------------------|
    |-3/--3-------6---6-5----------------------------------------|
    |------------------------------------------------------------|
    
    VERSE…
Наверх