Аккорды «Twisted Sister»

Twisted Sister
Группа Twisted Sister Будучи продуктом нью-йоркской роковой сцены начала 70-х годов, эта группа изначально ориентировалась на творчество New York dolls, Kiss и Alice Cooper. Несмотря на хороший потенциал, "Twisted Sister" смогли сделать серьёзный прорыв только почти через десять лет после начала своей карьеры. Основанная в декабре 1972-го гитаристом Джеем Джеем Френчем, команда сперва специализировалась на глэм-роковых каверах. http://twisted-sister.ru Популярность "сестрёнок" росла довольно… Читать полностью... Группа Twisted Sister Будучи продуктом нью-йоркской роковой сцены начала 70-х годов, эта группа изначально ориентировалась на творчество New York dolls, Kiss и Alice Cooper. Несмотря на хороший потенциал, "Twisted Sister" смогли сделать серьёзный прорыв только почти через десять лет после начала своей карьеры. Основанная в декабре 1972-го гитаристом Джеем Джеем Френчем, команда сперва специализировалась на глэм-роковых каверах. http://twisted-sister.ru Популярность "сестрёнок" росла довольно медленно, и одной из причин тому была текучка кадров. Относительно стабильный состав сформировался только в конце 1975-го, когда в группе появились гитарист Эдди Ойеда, басист Кеннет Харрисон Нил и барабанщик Кевин Джон Грэйс. А вот с вокалистами Twisted Sister так и испытывали постоянные проблемы, пока команду не возглавил Dee Snider. Ди оказался не только отличным фронтменом и шоуменом, но и талантливым композитором. Снайдер взвалил на себя обязанности по написанию львиной доли материала и довольно быстро вывел группу на передний край местной сцены. При участии нового ударника Тони Петри в мае 1978-го прошли сессии, материал с которых был издан впоследствии как Club Daze Volume 1 The Studio Sessions. Постепенно "Twisted Sister" перешли от простого глэма к хард-року, и большую роль в этом сыграл экс-басист Dictators Марк Мендоза по прозвищу "Животное". В 1980-м вышел первый сингл, I'll never grow up now!, а за ним последовал еще один, Bad Boys of Rock'n'Roll. Оба были изданы собственным лейблом группы, TSR, но солидные компании продолжали отворачиваться от "Twisted Sister". Лишь в 1981 году небольшая фирма Secret records рискнула сделать попытку, выпустив в Англии 4-трековый EP Ruff Cuts. Только после этого "сестрёнки" отправились на берега Туманного Альбиона записывать долгожданный дебютный альбом. Сессии проходили при участии нового ударника Эй Джей Перо, а заправлял действом Пит Уэй из UFO. Несмотря на то, что саунд Under the Blade был довольно посредственный (всё же это был первый опыт Уэя в качестве продюсера), альбом привлёк внимание Atlantic records и "Twisted Sister" вышли теперь на "мажорный" уровень. В 1983-м группа вломилась в чарты с альбомом You can't Stop Rock'n'Roll, сопровождаемым синглом и клипом на заглавную композицию. Однако настоящий успех музыканты испытали с выходом диска Stay Hungry, занявшим хорошие позиции в хит-парадах многих стран. Такие суперхиты как We're not Gonna Take it постоянно крутились в эфире и помогли пластинке завоевать мультиплатиновый статус. Однако "Twisted Sister" недолго пришлось наслаждаться успехом, и уже следующее их творение публика встретила довольно прохладно. Турне в поддержку Come Out and Play было провалено, и положение не спасло даже переиздание Under the Blade с бонусом в виде I'll never grow up now. После ухода Перо отношения в коллективе накалились до предела, и Снайдер пытался выгнать даже самого Френча. Вышедший в 1987-м Love is for suckers (записанный с Джоем Франко на ударных) стал последним релизом "Twisted sister", и вскоре после его выхода группа распалась. В последующие годы Ди Снайдер основал пару проектов, Desperado и Widowmaker, но оба они оказались недолговременными. Волна реюнионов, прокатившаяся на стыке тысячелетий не обошла и "Twisted sister". Музыканты забыли былые распри и вновь начали давать концерты, а в 2004-м переиздали с бонусами свой лучший альбом Still hungry в собственной продюсерской обработке. Дискография: Under The Blade - 1982 You Can't Stop Rock'N'Roll - 1983 Stay Hungry - 1984 Come Out And Play - 1985 Love Is For Suckers - 1987 Big Hits And Nasty Cats - 1992 Live At Hammersmith + Bonus (2 CD) - 1995 Club Daze Vol.1 & Vol.2 - 2002 Still Hungry - 2004 Twisted Christmas - 2006 Скрыть...
Популярные аккорды Twisted Sister:
алфавиту | просмотрам | случайно
  • E D# C# B (x2)
    
    Verse 1
    E B E A 
    E B E B
    E B E A 
    E B E B
    
    Chorus 1
    E B E A
    E B E-D#-C#-B
    
    Verse 2
    E B E A 
    E B E B
    E B E A
    E B E-D#-C#-B
    
    Pre-Chorus 1
    D C# B
    D C# B
    E F F# B
    
    Chorus 2
    E B E A
    E B E B
    E B E A
    E B E-D#-C#-B
    
    Solo
    e|--------------|----------------------|---------------|-------------------|
    B|--------------|-9----9-10-10-10-9----|-9-9---------9-|-------12-12-12-12-|
    G|-9---9-11---11|---11--------------11-|-----11-9-11---|-9-9-9-------------|
    D|---9------9---|----------------------|---------------|-------------------|
    A|--------------|----------------------|---------------|-------------------|
    E|--------------|----------------------|---------------|-------------------|
    
    e|-------------------|-------------------|-------------------|-------------------|
    B|-------------------|-9---------9-10----|-9--9------------9-|-------------------|
    G|-9---9----9--11----|----9--11--------9-|-------11--9-11----|-9--9--9-----------|
    D|-------9--------9--|-------------------|-------------------|-------------------|
    A|-------------------|-------------------|-------------------|-------------------|
    E|-------------------|-------------------|-------------------|-------------------|
    
    e|-12-12----12-14----|-16-------16-17----|-16-16----------16-|-------------------|
    B|-------12-------12-|----17-19-------17-|-------19-17-19----|-------------------|
    G|-------------------|-------------------|-------------------|-17-17-17----------|
    D|-------------------|-------------------|-------------------|-------------------|
    A|-------------------|-------------------|-------------------|-------------------|
    E|-------------------|-------------------|-------------------|-------------------|
    
    Solo…
  • e-----------------------------------------|
          B-----------------------------------------|
          G-----------------------------------------|
          D-7--5555--------12-12-12-12------2------5|
          A-7--5555--------12-12-12-12------2------5|…
  • Pre-intro: 1/2 measure
     |----------------|
     |----------------|
     |----------------|
     |R---------------|
      h
    
    Intro: 8 measures
    
    )|--------------------------------|--------------------------------|
    )|--------------------------------|3---------------2---------------|
    )|----------------3---------------|--------------------------------|
    )|1-------------------------------|--------------------------------|…
  • Intro............................................................ |
          C#5                   A5                     G#5                |
    e:||----------------------|---------------------| --------------------|
    B:||*-14------14-16-17-16-|--------14-16-17-16--|…
  • -----------3 TIMES-----------------
    
      b         ...........               ...       ..........
    
    ------[-----------------------------------]------------------------------
    
    ------[-----------------------------------]------------------------------
    
    ------[-----------------------------------]------------------------------
    
    ------[-----------------------------------]------------------------------
    
    ------[--4--------------2--4-4------------]--4--------------7---4-4--2-4-
    
    19b21-[--2--2-2-2-2-2-2-0--2-2--------0-2-]--2--2-2-2-2-2-2-5---2-2--0-2-
    
    
    
    Verse:
    
    
    	They…
  • Intro pattern x 4 i think maybe 3 go listen to the song
    
    
    |--------------------|--------------------|
    |--------------------|--------------------|
    |---------------5----|3----3--5-----------|
    |0--------0-0--------|------------3--2----|
    
    
    First…
  • Tune Gtr to E
    
    
    Riff A
    |---------------------|------------------------|
    |---------------------|------------------------|
    |---3 times-----------|------------------------| 
    |------------------7--|--8--7---8--7----5------|…
  • Verse
    Fig 2						       First 3 times only
       E	         D  A 	       		        D  A    E
    e:----------------------------------------------------|-----------|
    B:---------------3------------------------------3-----|-----------|
    G:---------------2--2-------------2-------------2--2--|-----------|
    D:-2-------------0--2--2-2-2-2-2--2--2-2-2-2-2--2--2--|-----------|
    A:-2--2-2-2-2-2-----0--0-0-0-0-0--0--0-0-0-0-0-----0--|-2-2-2-2-2-|
    E:-0--0-0-0-0-0---------------------------------------|-0-0-0-0-0-|…
  • Tune Gtr to E
    
    
    Riff A
    |-------------------------|
    |-------------------------|
    |-------------------------| 
    |--9-9--7----7-7--9-------| 
    |--7-7--5----5-5--7-------|
    |-------------------------|
    
    Riff B…
  • Tune Gtr to E
    
    
    Riff A
    |-----------------------------|
    |-----------------------------|
    |-----------------------------| 
    |--2-2--4-4--2-2--5-4-2-------| 
    |--2-2--5-4--2-2--5-4-2-------|
    |--0-0--3-2--0-0--3-2-0-------|
    
    Riff…
  • intro
    
    e--------------------------------------------------------------|
    b--------------------------------------------------------------|
    g--------------------------------------------------------------|
    d--------------------------------------------------------------|
    a-7777777777777777.....etc-------------------------------------|
    e--------------------------------------------------------------|…
  • [Intro]
    
    E               B
    We're not gonna take it
    E                  A
    No, we ain't gonna take it
    E               B               E    D#5    C#m7    B
    We're not gonna take it anymore
    
    [Verse 1]
    
    E…
Наверх