Аккорды Two Door Cinema Club - Sun

Добавлено: @romashka
Дата добавления: 28 Декабря 2017г.
Рейтинг:
0.0
Просмотров: 163
Транспонировать - +
D       Am
Ocean blue 
      C     Em
What have I done to you
D       Am
Cut so deep
      C      Em      
Yet growing through and through

D Am C Em 
D Am C

D        Am
Drawn apart
     C        Em
New York and London
D         Am 
All I see now
     C       Em
Are distant drumlins
D            Am
The roads I knew
   C        Em
Became a city 
D           Am
Then I wonder
          G
Will you wait for me, oh

e|------------------------------------------------------------------|
B|------------------------------------------------------------------|
G|----5---5---5---5---2---2---2---2---------------------------------|
D|------------------------------------2---2---2---2---5---5---5---5-|
A|--3---3---3---3---0---0---0---0-----------------------------------|
E|----------------------------------0---0---0---0---3---3---3---3---|

C
Though
         Am
I'm far away
             Em 
I know I'll stay, I know I'll stay
                  G
Right there with you
      C
And though
               Am
It might be too late
                Em 
What would you say? What would you say?
              G
What would you do?

D Am C Em 
D Am C Em

D         Am
I built a hive
    C                 Em
Became one with the bees
D                Am
But we fell like rain
     C             Em
Got lost into the sea
D           Am
If I don't know
     C              Em
The wind will carry me
   D           Em G 
So just hold tight

e|------------------------------------------------------------------|
B|------------------------------------------------------------------|
G|----5---5---5---5---2---2---2---2---------------------------------|
D|------------------------------------2---2---2---2---5---5---5---5-|
A|--3---3---3---3---0---0---0---0-----------------------------------|
E|----------------------------------0---0---0---0---3---3---3---3---|

C
Though
         Am
I'm far away
             Em 
I know I'll stay, I know I'll stay
                  G
Right there with you
      C
And though
               Am
It might be too late
                Em 
What would you say? What would you say?
              G
What would you do?

C                     Em
Over and over many setting suns
        D                          Am
I have run, I have waited for the rain to come 
C                                Em
When through that mist I see the shape of you
        D                          Am
And I know, and I know that I'm in love with you 

C Am Em G

C
Though
         Am
I'm far away
             Em 
I know I'll stay, I know I'll stay
                  G
Right there with you
      C
And though
               Am
It might be too late
                Em 
What would you say? What would you say?
              G
What would you do?
Наверх