Аккорды U2 - I Still Haven't Found What I'm Looking

Добавлено: @romashka
Дата добавления: 30 Мая 2024г.
Рейтинг:
0.0
Просмотров: 12
E--0-3-3p0----5-3-3-0----0-3-3p0----5-3-3-0----0-------------0------------|
B------------------------------------------------3-1-3-1-1-----3-1-3-1-1--|
G-------------------------------------------------------------------------|
D-------------------------------------------------------------------------|
A-------------------------------------------------------------------------|
E-------------------------------------------------------------------------|
(I have climbed...)			      (Only to be...)

(REPEAT AGAIN FOR VERSE)

E--------3-----1p0--------------------------------------------------------|
B--1--1------------1---------------1-1-1----------------------------------|
G------------------------------2-2----------------------------------------|
D-------------------------------------------------------------------------|
A-------------------------------------------------------------------------|
E-------------------------------------------------------------------------|
(But I still...)	       (...what I'm looking for)
Музыка - это самый сильный вид магии (Мэнсон)
Мы стремимся к созданию контента, соответствующего всем нормам законодательства и уважающего интеллектуальную собственность. Мы также придаем большое значение тому, чтобы не задеть никого и не оскорбить чьи-либо чувства. Если у вас есть вопросы или претензии по размещенному материалу, пожалуйста, сообщите нам об этом на указанный адрес электронной почты: [email protected].
Шрифт
-
0
+
Прокрутка
-
0
+
Стоп
Наверх