Аккорды UFO - It's Killing Me

Добавлено: @romashka
Дата добавления: 25 Июля 2015г.
Рейтинг:
0.0
Просмотров: 198
Транспонировать - +
Standard Tuning

G:-------------------|      |-------------------|
D:-------------------|  x6  |-------------------|
A:---3--------3--5--3|      |----3--------------|
E:5------5--3--------|      |5-------5--3---0--3|

G:-------------------|      |-------------------|
D:-------------------|  x3  |-------------------|
A:---3--------3--5--3|      |----3--------------|
E:5------5--3--------|      |5-------5--3---0--3|

G:-------------------|      |-------------------|
D:-------------------|  x4  |-------------------|
A:---3--------3--5--3|      |----3--------------|
E:5------5--3--------|      |5-------5--3---0--3|

Oooh, its killing me. . . 
G:-------------------|
D:-------------------|  x4
A:----------3-3------|
E:55555555------3-3-3|

G:-------------------|      |-------------------|
D:-------------------|  x3  |-------------------|
A:---3--------3--5--3|      |----3--------------|
E:5------5--3--------|      |5-------5--3---0--3|

(Chorus)
G:-------------------|
D:-------------------|  x4
A:----------3-3------|
E:55555555------3-3-3|

G:-------------------------------|
D:-------------------------------|  x4
A:3-3-3-3------------------------|
E:---------3-3-3-3--5-5-5-5--1--3|

G:-------------------|      |-------------------|
D:-------------------|  x3  |-------------------|  (x2)
A:---3--------3--5--3|      |----3--------------|
E:5------5--3--------|      |5-------5--3---0--3|

G:-------------------|
D:-------------------|  x14 (The song then
A:----------3-3------|         fades out)
E:55555555------3-3-3|

comments powered by Disqus
Наверх