Аккорды «Unwritten Law»

Unwritten Law
Unwritten Law — американская рок-группа, образовавшаяся в 1990 году в Пауей, штат Калифорния (пригород Сан-Диего) и записывающаяся сейчас на Abydos Records. Они выпустили семь полноценных альбомов, выступали с концертами в разных странах, включая выступление на Vans Warped Tour. Они широко известны благодаря своим синглам «Seein’ Red,» «Rest of My Life,» и «Save Me (Wake Up Call).» Их последний альбом, Swan, вышел 27 марта 2011 года. Состав: Текущий: Scott Russo – вокал Steve Morris – гитара Pat… Читать полностью... Unwritten Law — американская рок-группа, образовавшаяся в 1990 году в Пауей, штат Калифорния (пригород Сан-Диего) и записывающаяся сейчас на Abydos Records. Они выпустили семь полноценных альбомов, выступали с концертами в разных странах, включая выступление на Vans Warped Tour. Они широко известны благодаря своим синглам «Seein’ Red,» «Rest of My Life,» и «Save Me (Wake Up Call).» Их последний альбом, Swan, вышел 27 марта 2011 года. Состав: Текущий: Scott Russo – вокал Steve Morris – гитара Pat Kim – бас Dylan Howard – ударные Выбывшие: John Bell – бас Wade Youman – ударные Rob Brewer – гитара Tony Palermo – гитара Дискография: Blue Room (1995) Oz Factor (1996) Unwritten Law (1998) Elva (2002) Here’s to the Mourning (2005) Swan (2011) Скрыть...
Популярные аккорды Unwritten Law:
алфавиту | просмотрам | случайно
  • *Intro*
    G--------------
    D------2-------
    A--444-------0-    x 3
    E--------222---
    
    (the 4th time play...)
    G--------------
    D--------------
    A--------7-6-3-
    E--45454-------
    
    
    *Verse #1*
    G-------------------------------------------------
    D-------------------------------------------------
    A--44----------44----------44----------44---------
    E-----55-77-44----55-77-77----55-77-44----222-4-5-
    
    
    *Chorus*
    *=play…
  • Verse x 2
    e|---------------------------------------------------------------------------|
    B|---------------------------------------------------------------------------|
    G|-----0-----0---0-----0-----0---0-----0-----0---0-----0-------0-------------|
    D|---4---4-----4-----4---4-----4-----4---4-----4-----4---4---4---4-----------|
    A|-3-------3-----------------------3-------3---------------2-----------------|
    E|-----------------3-------3-----------------------0-------------------------|
    
    e|---------------------------------------------------------------------------|
    B|---------------------------------------------------------------------------|
    G|-----0-----0---0-----0-----0---0-----0-------0-------0-----0---0-----------|
    D|---4---4-----4-----4---4-----4-----4---4---4---4---4---4-----4-------------|
    A|-3-------3-----------------------0-------0-------0-------0-----------------|
    E|-----------------3-------3-------------------------------------------------|
    
    Chorus…
  • Guitar 1
    e-----------------------------------------------------------------|
    B-----------------------------------------------------------------|
    G-----2-----2---2-----2-----2---2-----2-----2---2-----2-----2---2-|
    D-0-0---0-0---0---0-0---0-0---0-----------------------------------|
    A-----------------------------------------------------------------|
    E---------------------------------0-0---0-0---0---0-0---0-0---0---|
    
    
    Guitar…
  • Guitar I
    E|-----------------------10---|-----------------------10-------|
    B|-8--8---8-8-8-8---8-8-----8-|-8--8---8-8-8-8---8-8-----8-----|
    G|----------------------------|--------------------------------|
    D|----------------------------|--------------------------------|
    A|----------------------------|--------------------------------|
    E|----------------------------|--------------------------------|
    
    E|-----------------------10---|----------------------------12-10|
    B|-8--8---8-8-8-8---8-8-----8-|-10--10--10-10-10-10--10-10------|
    G|----------------------------|---------------------------------|
    D|----------------------------|---------------------------------|
    A|----------------------------|---------------------------------|
    E|----------------------------|---------------------------------|
    
    Guitar…
  • Normal Tuning
    
    Intro
    eI-----------------3--------------------3----------------------I
    BI------------------3--------------------3---------------------I
    GI----------------0--------------------0-----------------------I
    DI---------------------------------------------0-----------0---I
    AI-{0h2h0}---------------0h2h0------------------0h2h0----I
    EI----------h2---3-----3-2--------h2--0---0--------------------I…
  • Normal Tuning
    
    -------------------3-2-2-2---------------------3-2------
    -------------------3-3-3-3---------------------3-3------
    -2/4/2-0---------------------2/4/2-0--------------------
    --------------------------------------------------------
    ----------3-3-3-3---------------------------------------
    ---------------------------------------3-3-3-3----------
    
    --------------3-2----------------3-2--------------------
    --------------3-3----------------3-3--------------------
    ---------------------2/4/2-0----------------------------
    -2/4-2--------------------------------------------------
    -------3-3-3--------------------------------------------
    -----------------------------3--------------------------
    
    --------------------------------------------------------
    --------------------------------------------------------
    -2/4-2--------------------------------------------------
    -------3------------------------------------------------
    --------------------------------------------------------
    --------------------------------------------------------…
  • INTRO GUITAR 1&2
    
    guitar 1
    D----------------------------------------
    A----------------------------------------
    F----------------------------------------
    C----------------------------------------
    G----------------------------------------
    D-7--00--6--00--5--00--3--00--5--0--6--0-
    
    guitar…
  • INTRO:
    PM |.   ...   ...   ...   ...        ...   ...|
    e|----|---------------------------|-----------------|
    B|----|---------------------------|-----------------|
    G|----|-------------------------4-|--------------4--|
    D|----|------5-----5-----5-----5--|------5------5---|
    A|----|-----5-----5-----5-----5---|------5-----5----|
    E|--0-|-3-3---5-5---7-7---8-8-----|--3-3---8-8------|…
  • INTRO   (oo:oo - oo:11)
    Guitar 1  (played fast with up and down stroke)
    ----------------------------------|---------------------------------
    ----------------------------------|---------------------------------
    ----------------------------------|x3-------------------------------
    ----------------------------------|---------------------------------
    ---------------22--33--22--00--22-|-------------22--33--22--00--55--
    --00(ring)------------------------|---00(ring)----------------------
    
    Guitar…
  • Lead Fig1                         Lead Fig2=20
    
    e------------------------------- e-----------------------------------
    B------------------------------- B-----------------------------------
    G-------------------------------…
  • Intro
    e:-----------------------------------1-------3-------1-----------------------0------
    B:-------3-------------2-----------3---3-------3-------3------------3--------2------
    G:-----3---3---------2---2-------2-------2-------2-------2--------3---3------2------
    D:---3-------3-----2-------2---0-----------0-------0-------0----3-------3----2------
    A:-1-----------1-0-----------0--------------------------------1-----------1--0------
    D:----------------------------------------------------------------------------------
    
    Verse
    e:--------------------------------------------------------:-------------------------
    B:--------------------------------------------------------:-------------------------
    G:--------------------------------------------------------:-------------------------
    D:-3-0-3-0-3-5--3--0------------------------------3-------:----------------3--------
    A:-3-0-3-0-3-5--3--0------------------------------3-------:-…
  • E-|----------------------------------------------------------------------
    B-|----------------------------------------------------------------------
    G-|-9-----9------9---6-------9-------------------------------------------
    D-|-9-7-9-9-7-9--9-9-6-6-7-9-9-7-9---------------------------------------
    A-|-7-7-9-7-7-9--7-9-4-6-7-9-7-7-9---------------------------------------
    E-|---5-7---5-7----7---4-5-7---5-7---------------------------------------…
  • >= slide up
    
    < = slide down
    
                            x5
    G:-------------------------|----------------------
    D:-------------------------|----------------------
    A:----5-7-------------5-7--|----5-7---------------
    E:-0-------5-7--5-7-4------|-0------7-5--4-5--4-2-
    
    
    G:--------------------------------------------
    D:--------------------------------------------
    A:----5-7-------------5-7-----5-7-------------
    E:-0-------5-7--5-7-4------0-------55--44--7--
    
    (Pretty…
  • Drop D tuning (DADGBe)
    ~ = Ring
     = Harmonic
    
    Pick as Fast as u can
    e-------------------------------------|
    B-------------------------------------|
    G-------------------------------------|
    D-1-1-1-1-1-1-1-----------------------|
    A-1-1-1-1-1-1-1-----------------------|
    D-1-1-1-1-1-1-1-----------------------|
    
    Intro
    e-------------------------------------|
    B-------------------------------------|
    G-------------------------------------|
    D-1-4-6-7-6-4-6-7-1-------------------|
    A-1-4-6-7-6-4-6-7-1-------------------|
    D-1-4-6-7-6-4-6-7-1-------------------|
    
    4th…
  • Standard tuning (eadgbe)
    
    Intro:(Bass)
    G|-8-----8-----8----6-----6-----6----4-----4-----4---|
    D|---9-9--—9-9---9----8-8---8-8---8----6-6---6-6---6-|
    A|---------------------------------------------------|
    E|---------------------------------------------------|
    
    G|-3-----3-----3----4-----4-----4----3-----3-----3---|
    D|---4-4---4-4---4----2-2---2-2---2----4-4---4-4---4-|
    A|---------------------------------------------------|
    E|---------------------------------------------------|
    
    G|-4-----4-----4---4-------3-------|
    D|---2-2---2-2---2---6-6-6---4-4-4-|
    A|---------------------------------|
    E|---------------------------------|
    
    
    Intro:…
  • Tuning:EADGBE
    
    INTRO: gtr 1 
    e|-0----1------1-----0----------------------0---1-----1-----0------------0---
    B|---1----1------1-----1---3--------3---------1---1-----1-----1---3--------1-
    G|----------------------------4--0-----4--0---------------------0---4--0-----
    D|----------3-------3-------------------------------3-----3------------------
    A|---------------------------------------------------------------------------
    E|---------------------------------------------------------------------------
    
    INTRO:…
  • Intro guitar 2
    e------------------------------------------------------------------
    b------------------------------------------------------------------
    g--------4----4------4--4------4---4-------4---4-------------------
    d-----2-----2---2--2--2--2--2---2---2--2---2---2-------------------
    a---4----4---4---3---3--3------------------------------------------
    E------------------------------0---0---0---0---0---0---------------
    
    intro…
  • INTRO: 
    
    G:-------------------------------------------------------------------------------------------------------- 
    D:--------------------------------------------------------------------------------------------------------…
Наверх