Аккорды Van Morrison - Be Thou My Vision

Добавлено: @romashka
Дата добавления: 26 Июня 2016г.
Рейтинг:
0.0
Просмотров: 393
par
par
(steady medtitive beat)par
pardsb100sa100f1fs24 e ||--------------------------------------------------------------|par
 B ||--------------------------------------------1-------------------------------------------| par
G ||-------------------------0-3-0----------0-3--3-0-3--------------------------------------|par
D ||-1-1-3-1---------1-1-3-------3-3-3-3----------------------------------------------------|par
A ||---------3-1-1-3------------------------------------------------------------------------|par
E ||----------------------------------------------------------------------------------------|par
par
e ||----------------------------------------------------------------| par
B ||-----1-1-3/4-3---------------------------1----------------------| par
G ||--3--------------3-0-3--------------0-3---3-0----0--------------| par
D ||-------------------------1-0-----1-------------1-----3-1-1-1---|par
A ||-----------------------------3-1--------------------------------| par
E ||---------------------------------------------------------------|par
par
pardf0fs20par
}
Но если и музыка нас оставит, что будет тогда с нашим миром? (Гоголь)
Мы стремимся к созданию контента, соответствующего всем нормам законодательства и уважающего интеллектуальную собственность. Мы также придаем большое значение тому, чтобы не задеть никого и не оскорбить чьи-либо чувства. Если у вас есть вопросы или претензии по размещенному материалу, пожалуйста, сообщите нам об этом на указанный адрес электронной почты: [email protected].
Шрифт
-
0
+
Прокрутка
-
0
+
Стоп
Наверх