Аккорды Wilco - I Might

Добавлено: @romashka
Дата добавления: 27 Марта 2021г.
Рейтинг:
0.0
Просмотров: 153
Транспонировать - +
e|---------------------------------------------------------------------------|
B|---------------------------------------------------------------------------|
G|---------------------------------------------------------------------------|
D|---------------------------------------------------------------------------|
A|---------------------------------------------------------------------------|
D|--------5-5-5-7-7-7-7------(2X)----------2/5-7-9-9-9-9----(2X)-------------|
 
e|-----------5------------7---------------------------------------------------|
B|-----------5------------7---------------------------------------------------|
G|-----------5------------7---------------------------------------------------|
D|-----------7------------9---------------------------------------------------|
A|-----------7------------9---------------------------------------------------|
D|-----------X------------X---------------------------------------------------|
         Am       Bm

e|---------------------------------------------------------------------------|
B|---------------------------------------------------------------------------|
G|--------4-4-4-5-5-5-5------------------0-0-0-7-7-7-7-----------------------|
D|--------5-5-5-7-7-7-7------------------2-2-2-9-9-9-9-----------------------|
A|--------5-5-5-7-7-7-7------------------2-2-2-9-9-9-9-----------------------|
D|--------0-0-0-0-0-0-0------(2X)--------0-0-0-0-0-0-0--------(2X)-----------|
       G    Am                Em   Bm

LYRICS:
Was i wrong
All night long
Was so hot
I was thinking sun
I came around and i felt.uh oh oh
Some guys have everything I know
It’s alright
Ive done a lot of crawling around outside
Huh, It’s alright
It’s so cold
I was pissing blood
It’s in the cards of everybody
Oh lies, let it taste,let it go
I don’t know
Was nicked, bad shaving and low low slow mo
It’s alright
You won’t set the kids on fire
Ohhh but I might.ho!
Come on ..sentimental
Find More lyrics at www.sweetslyrics.com
If the solar car is coming, im home
magna carte's on a slim jim but.brother!
sonic soul with a cold clean tote is a mother!
That’s right
When ya gonna find out right.. you're still mine
It’s alright
It’s alright
It’s alright
You won’t set the kids on fire
oh ohh but I might
(doo doo doo doo doo doo, doo doo doo do-do-doo)
It’s alright
It’s alright
Наверх