Аккорды William Michael Morgan - Onto Something

Добавлено: @romashka
Дата добавления: 29 Марта 2024г.
Рейтинг:
0.0
Просмотров: 28
Транспонировать - +
[Intro]
  D              G      D            G D
E -0h2-----|-0h2-----|-0h2-----|-0h2-----|
B -----2-3-|-----2-0-|-----2-3-|-----2-0-|
G ---------|---------|---------|---------|
D ---------|---------|---------|---------|
A ---------|---------|---------|---------|
E ---------|---------|---------|---------|

[Verse]
        D
You've met my mama

I've met all of your friends
            G
And you've seen where I was born and raised
              Em7
Yeah, for the last few days
        A             D
You've woke up in my arms

  D              G D
E -0h2-----|-0h2-----|
B -----2-3-|-----2-0-|
G ---------|---------|
D ---------|---------|
A ---------|---------|
E ---------|---------|

[Verse]
      D
Your toothbrush next to mine sitting on the sink
          G
And your clothes in the closets got me starting to think
Em7
Maybe baby
    A             D
We might be onto something


E -0h2-----0-|-0-0h2---2-|
B -----2-3---|-------2---|
G -----------|-----------|
D -----------|-----------|
A -----------|-----------|
E -----------|-----------|

[Chorus]
       G
No, I don't know where we're going
            A
But let's en-joy the ride
        D               A/C#      Bm       A
'Cause everything we're doing it feels so right

      G
When love comes this easy
A                   Bm7
We ain't even gotta try

       Em7
No, I wouldn't change nothing
          A             D
Girl, we might be onto something

  D                G  D
E -0h2-----|-0h2--------|
B -----2-3-|-----2-0--3-|
G ---------|------------|
D ---------|------------|
A ---------|------------|
E ---------|------------|

[Verse]
        D
We can save the picket fence

And the wrap around porch talk
      G
For another day down the road
           Em7
'Cause the way that this is gonna go
          A                         A
That's a conversation we both know we'll have

    D            G D
E -0h2-----|-0h2-----|
B -----2-3-|-----2-0-|
G ---------|---------|
D ---------|---------|
A ---------|---------|
E ---------|---------|

[Verse]
           D
And their ain't nothing wrong with taking our time
           G
Taking it slow taking it easy night after night

Em7
Maybe baby
    A              D        D
We might be on to something

[Chorus]
       G
No, I don't know where we're going
            A
But let's en-joy the ride
        D               D/F#      Bm       A
'Cause everything we're doing it feels so right

      G
When love comes this easy
A                   Bm
We ain't even gotta try

       Em
No, I wouldn't change nothing
 A                G
Girl, we're onto something

[Instrumental/Solo]
G  A  G  A

[Chorus]
       G
No, I don't know where we're going
              A
But let's en-joy the ride
        D               A/C#      Bm       A
'Cause everything we're doing it feels so right

      G
When love comes this easy
    A               Bm
We ain't even gotta try

       Em
No, I wouldn't change nothing
    A             Bm      A  G
We might be onto somethin-i-ing

       Em
No, I wouldn't change nothing
                  D
Girl, we're onto something

[Outro]D
  D              G      D         D    G D
E -0h2-----|-0h2-----|-0h2-----|-0h2-----2-|
B -----2-3-|-----2-0-|-----2-3-|-----2-0-3-|
G ---------|---------|---------|---------2-|
D ---------|---------|---------|---------0-|
A ---------|---------|---------|---------x-|
E ---------|---------|---------|---------x-| 
Наверх