Аккорды «X-Japan»

X-Japan
X Japan (яп. エックス ジャパン Эккусу Дзяпан)— японская метал-группа, сформирована в Тибе в 1982 г. Это самая масштабная группа в истории японской рок-музыки, положившая начало широкому распространению стиля visual kei. Их музыка характеризуется агрессивными быстрыми песнями и красивейшими фортепианными балладами. За период творчества (1982—1997) группа проделала путь от спид-метала до альтернативного рока. Вклад X Japan в японскую рок-культуру поистине огромен. Коллектив был основан двумя школьными… Читать полностью... X Japan (яп. エックス ジャパン Эккусу Дзяпан)— японская метал-группа, сформирована в Тибе в 1982 г. Это самая масштабная группа в истории японской рок-музыки, положившая начало широкому распространению стиля visual kei. Их музыка характеризуется агрессивными быстрыми песнями и красивейшими фортепианными балладами. За период творчества (1982—1997) группа проделала путь от спид-метала до альтернативного рока. Вклад X Japan в японскую рок-культуру поистине огромен. Коллектив был основан двумя школьными приятелями: Toshi (вокал) и Yoshiki (ударные, рояль, лидер группы) в 1982 году. Позднее к ним присоединились Pata (гитара), hide (гитара, вокал) и Taiji (бас), которого в 1992 году заменил Heath. Первый альбом под названием Vanishing Vision увидел свет в 1988 году. В сентябре 1997 года X Japan распались из-за ухода Тоси. В 2007 группа воссоединилась для записи нового сингла и концертного тура. Гитарные партии hide, который ушел из жизни в 1998 году, будут играть приглашённые музыканты. История Тоси и Ёсики выросли вместе. Они вместе учились в средней и высшей школе, были друзьями, и оба были сильно увлечены музыкой. Свою первую группу Ёсики и Тоси создали еще в школе, когда им было по 12 лет. Сначала она называлась «Dynamite», затем «Noise», а потом, с 1982 года — «X». Состав группы, кроме Ёсики и Тоси, постоянно менялся. Наконец, в 1987 году в группу пришли Хидэ, Пата и Тайдзи (настоящее имя — Савада Тайдзи [Sawada Taiji], 12.07.1966). В 1989 году был записан первый коммерческий альбом «Blue Blood». Группа сразу же стала известной в Японии и получила приз канала «TBS» как «лучший новый исполнитель». Второй альбом, «Jealousy», вышел в 1991 году. В 1992 «X» стала первой группой, целых три дня выступавших в «Tokyo Dome» — самом большом зале и стадионе Японии. В том же году Тайдзи ушел из группы, и в нее пришел Хис. Одновременно с этим произошло переименование группы в «X-Japan», поскольку выяснилось, что группа под названием «X» уже есть в США. Одновременно с карьерой рок-музыканта Ёсики активно занимался исполнением классической фортепианной музыки. В это время группа уже стала известна не только в Японии, но и в США, где снимались многие клипы «X-Japan». В 1996 году вышел последний альбом «Dahlia» (между 1991 и 1996 годами группа выпустила множество синглов и мини-альбом «Art of Life» (1993)). В 1997 году начался распад группы. У ее членов появились собственные проекты, и им уже стало сложно уживаться вместе. В апреле 1997 года группу покинул Тоси, а 22 сентября было официально объявлено о роспуске группы. Свой последний концерт они дали 31 декабря 1997 года в «Tokyo Dome». В 1998 году Хидэ, начавший успешную карьеру в составе группы «hide with Spread Beaver», повесился в своей квартире, не оставив записки. На его похоронах присутствовало около 50000 человек, а несколько девушек-фанаток, несмотря на призывы друзей Хидэ этого не делать, покончили с собой. Ёсики продолжает успешную музыкальную карьеру, сочетая сольные выступления с продюссированием начинающих исполнителей. Именно Ёсики в 1993 году «открыл» группы «Glay», «dir en grey» Скрыть...
Популярные аккорды X-Japan:
алфавиту | просмотрам | случайно
  • p  = pull off
    h  = hammer on
    /  = slide
    b  = full bend
    hb = hold bend
    rb = release bend
    
    
    e|---------------------------------------------------------------------------------|
    B|--------8hb--8rb--7--8--7h8p7----------------------------------------------------|
    G|----7-----------------------9--7--6--4--------6--9--7--6-------------------------|
    D|----------------------------------------7--9--------------9--7--7/5--9--7--------|
    A|---------------------------------------------------------------------------------|
    E|---------------------------------------------------------------------------------|
    
    
    e|-------------------------------------------------7/5---10--10b--9------9----|
    B|-------------------------------------------7/5------------------------------|
    G|-------------------------------------7/6---------------------------11-------|
    D|------------------------5--7---9/7------------------------------------------|
    A|----10--9--7------7--9------------------------------------------------------|
    E|--------------10------------------------------------------------------------|
    
    e|----10--12--10----------9b--------14--12--10--------------------------------|
    B|----------------12--9B------10----------------------------------------------|
    G|----------------------------------------------12---12--11-------------------|
    D|----------------------------------------------------------------------------|
    A|----------------------------------------------------------------------------|
    E|----------------------------------------------------------------------------|
    
    
    e|-----------------------------------------------------17-14-15-17-15---------|
    B|-----------------------------14-------14-15----14-15------------------------|
    G|--------------14-16----14-16----14-16-------16------------------------------|
    D|----14-16--17-------17------------------------------------------------------|
    A|----------------------------------------------------------------------------|
    E|----------------------------------------------------------------------------|
    
    e|-------------------------------------------------------------------------------|
    B|-------------------------------------------------------------------------------|
    G|--------------------11------------------12-11-9-7------------12-11-------------|
    D|----12---11--12--14-------12-------11-14-------------11-12-14------------------|
    A|----------------------------12-13----------------------------------------------|
    E|-------------------------------------------------------------------------------|
    
    e|----17-15h17p15-14h15p14-12h14p12-10h12p10-10p9h10p9--7--14----14-15-15b-14-|
    B|------------------------------------------------------------17--------------|
    G|----------------------------------------------------------------------------|
    D|----------------------------------------------------------------------------|
    A|----------------------------------------------------------------------------|
    E|----------------------------------------------------------------------------|
    
    e|--------14-----------15-14----------------14-15-17-14-15-17-19-15-17-19-----|
    B|----17---------14-17-------17-15-17-15-17-----------------------------------|
    G|------------15--------------------------------------------------------------|
    D|----------------------------------------------------------------------------|
    A|----------------------------------------------------------------------------|
    E|----------------------------------------------------------------------------|
    
    e|----21-17-19-21-19---19b---18-----------------------------------------------|
    B|----------------------------------------------------------------------------|
    G|----------------------------------------------------------------------------|
    D|----------------------------------------------------------------------------|
    A|----------------------------------------------------------------------------|
    E|----------------------------------------------------------------------------|…
  • Am
    Desert Rose
                E
    Why do you live alone
        E
    If you are sad
                  Am         E     Am
    I'll make you leave this life
                 E      F
    Are you white, blue or bloody red
                      E        Am
    All…
  • Intro:
    (Gb)///////(Ab)/(Bbm)////(Ebm)///(Ebm6)/////
    (each / is representatitve of one beat n the piece is in 4/4)
    
    Chords fade out until the first word is sung,
    then they come in like this:
    
    
                 Gb…
  • Tuning:
    
    G|--------------------------------------------|
    D|--------------------------------------------|
    A|--6--7-7-7-6--4-4-4-5-6--7-7-9-7-6-7-6-4-6--|
    E|--------------------------------------------|
    
    G|-----------------------------------------15-|
    D|-----------------------------------------13-|
    A|--6--7-7-7-6--4-4-4-5-6--7-7-9-7-6-7-6-4----|
    E|--------------------------------------------|…
  • Tune guitar 1/2 step down
    I'll add the solo soon
    
    Intro
    -------------------------------------------
    -------------------------------------------
    -------------------------------------------
    -----5-5-----------------5-5--------5-5-3--
    -7-7-3-3--7-7-3-3-5--7-7-3-3---7-7--3-3-2--
    -5-5------5-5-1-1-3--5-5-------5-5---------
    
    
    Verse
    -------------------------------------
    -------------------------------------
    -------------------------------------
    -------------------------------------
    -7-7-7-5----7-7-7-5----5-5-2-3-5-5-5-
    -5-5-----7--5-5-----7--3-3-------3-3-
    
    Pre…
  • GUITAR1
                                                                   
    E-------------|
    B-------------|
    G-------------|
    D---|--9--11--------------|
    A---|--9--11--------------|
    E-------------|…
Наверх