Аккорды Yann Tiersen - Comptine D'un Autre Ete

Добавлено: @romashka
Дата добавления: 20 Сентября 2020г.
Рейтинг:
0.0
Просмотров: 87
Транспонировать - +
e|-0---0---0---0---|-----------------|-----------------|-------------------|
B|---0---0---0---0-|-3---3---3---3---|-3---3---3---3---|-3---3---3---3----о|
G|-----0-------0---|---4---4---4---4-|---4---4---4---4-|---2---2---2---2---|
D|-----------------|-----5-------5---|-----4-------4---|-0---4---0---4-----|
A|-7-------7-------|-5-------5-------|-5-------5-------|------------------о|
E|-----------------|-----------------|-----------------|-------------------|
 
 
     
e|----3p2-3-7h8-7-------|---2h3-2-3h5-3-------|
B|о---0-----0-----0---0-|---0-----0-----0---0-|
G|--------0---------0---|-------0---------0---|
D|--2-------------------|-0-----------0-------|
A|о-------------7-------|---------------------|
E|----------------------|---------------------|
 
 
   
e|---2p0-2-7h8-7-------|---2p0-2-------------|
B|---0-----0-----0---0-|--------------------о|
G|---------------------|---2-----2---2---2---|
D|-0-----4-----0-------|-0-----4---0---4-----|
A|-----------------9---|--------------------о|
E|---------------------|---------------------|
 
 
    
e|-12-----7---------|-10-----7---------|
B|----0---0---0---0-|----0---0---0---0-|
G|------0-------0---|------0-------0---|
D|------------------|--0-------0-------|
A|--7-------7-------|------------------|
E|------------------|------------------|
 
 
    
e|-14-----7---------|-14---------------------|
B|----0---0---0---0-|------------------------|
G|------------------|----------14------------|
D|--0-------0---4---|--0----------0----------|
A|------9-----------|----12----12---12----12-|
E|------------------|-------14---------14----|
 
 
   
e|-------0---------|-3---------------|-2---------------|-2---------------|
B|-8-0---0---0---0-|-3-0---3---------|-3-0---3---------|-3-----3---------|
G|-9---0-------0---|-----0-4---4---4-|-------4---4---4-|---2---2---2---2-|
D|-----------------|-0-------0---5---|-0---4-------4---|-0---4---0---4---|
A|-7-------7-------|-----------------|---------5-------|-----------------|
E|-----------------|-----------------|-----------------|-----------------|
 
 
     
e|------7-----7-----7-----7-----8---|-----7-----7-----7-----7-----5----|
B|о---0-----0-----0-----0-----0---0-|---0-----0-----0-----0-----0---0--|
G|--------0-----------0-------------|-------0-----------0--------------|
D|----------------------------------|-0-----------0-----------0--------|
A|о-7-----------7-----------7-------|----------------------------------|
E|----------------------------------|----------------------------------|
 
 
   
e|-----2-----2-----2-----2-----3---|-----5-----5-----5-----5-----3------|
B|---0-----0-----0-----0-----0---0-|---3-----3-----3-----3-----3---3---о|
G|-------4-----------4-------------|-------2-----------2----------------|
D|-0-----------0-----------0-------|-0-----------0-----------0----------|
A|---------------------------------|-----------------------------------о|
E|---------------------------------|------------------------------------|
 
 
   
e|-0----*|
B|------*|
G|------*|
D|------*|
A|------*|
E|-0----*|

h   Hammer on
p   Pull off
o   Repeat part(повтори партию).
Наверх