Аккорды «Yellowcard»

Yellowcard
Yellowcard была создана в далеком 1997 году в США, город Джексонвилл, штат Флорида. Каждый альбом группы не похож на предыдущий, они постоянно экспериментируют со стилем исполнения. Жанр творчества — сочетание панк рока и альтернативы. В их музыке используется скрипка, которая в последних альбомах встречается довольно часто. В самом начале в состав Yellowcard входили Бэн Добсон, Тед Клэрри, Бен Харпер, Шон Маккин, Уоррен Кук, Лонгинью Парсон III. В таком составе они выпустили два альбома: "Midget… Читать полностью... Yellowcard была создана в далеком 1997 году в США, город Джексонвилл, штат Флорида. Каждый альбом группы не похож на предыдущий, они постоянно экспериментируют со стилем исполнения. Жанр творчества — сочетание панк рока и альтернативы. В их музыке используется скрипка, которая в последних альбомах встречается довольно часто. В самом начале в состав Yellowcard входили Бэн Добсон, Тед Клэрри, Бен Харпер, Шон Маккин, Уоррен Кук, Лонгинью Парсон III. В таком составе они выпустили два альбома: "Midget Tossing" (1997) и "Where We Stand" (1999). После этого Бэн Добсон уходит из группы. Ему на смену пришел 19-летний Райан Ки (вокал, ритм-гитара), который раньше играл в группе Craig's Brother. В 2000 году музыканты выпускают мини-альбом "Still Standing EP". Но вскоре группу покидает гитарист Тед Клэри и Райану Ки приходится исполнять еще и его обязанности. Отослав новый EP в Lobster Records, группа подписала свой первый контракт и отправилась в Калифорнию работать над полноценным альбомом. Таким образом, в 2001 вышел третий альбом "One For The Kids". За ним последовал "The Underdog EP" в 2002. После этого Уоррен Кук покинул коллектив по личным причинам. И ребята позвали своего старого друга - басс-гитариста Пита Моузли из Inspection 12. Вскоре после выхода "The Underdog EP" группа подписала контракт с Capitol Records. В 2003 году Yellowcard готовят к выходу следующий альбом - "Ocean Avenue". Но в процессе записи басист Питер Моузли покинул группу, ссылаясь на личные причины. На его место пришел Алекс Льюис. "Ocean Avenue" увидел мир 22 марта 2003 года и стал самым успешным альбомом группы - дважды платиновым. Первый сингл, "Way Away", поднялся на 25 строчку в рок-чартах. Песня наделала достаточно шума, чтобы определить основное направление группы. Во время тура в поддержку альбома Питер Моузли проявил желание вернуться в группу. Он был неотъемлемой частью коллектива во время записи "Ocean Avenue" и просто хорошим другом, поэтому Алексу пришлось уйти. В конце 2003 выходит сингл "Ocean Avenue", который быстро занял первые позиции во многих чартах. За музыкальное видео к этой песне Yellowcard в 2004 получили награду на MTV VMA. В этом же году парни стали хедлайнерами Warped Tour. Второй трэк альбома, "Breathing", появляется в играх Flatout 2 и Burnout 3:Takedown. После выпуска "Ocean Avenue" у группы начались финансовые трудности. Два года они провели в постоянных гастролях. В 2005 году Райан Ки и Питер Моузли уезжают ненадолго в Нью-Йорк, чтобы поработать над материалом для нового альбома, в то время, как остальные остаются в Калифорнии. Затем они заново воссоединяются в Лос-Анджелесе и начинают совместную работу над альбомом. Релиз "Lights and Sounds" состоялся в январе 2006. Вскоре после записи альбома Бэн Харпер, ведущий гитарист, один из основателей группы, уходит, чтобы сфокусироваться на своём собственном звукозаписывающем лэйбле Takeover Records. На его место приходит Райан Мендез из Staring Back. 17 июля 2007 года выходит альбом "Paper Walls". Группа отправляется в тур в поддержку альбома. Они гастролируют вместе с Blue October, Linkin Park. 17 октября 2007 года фанаты с горечью узнают, что Питер Моузли покидает группу, чтобы вернуться в Джексонвилл. Вместо него на басс-гитаре временно выступает Джошуа Портмэн из Staring Back. В январе 2008 группа отменяет несколько выступлений в Европе. Причиной тому послужило желания барабанщика Лонгинью Парсона взять отдых и вернуться в Джексонвилл, чтобы провести время со своей семьей. 22 января 2008 года выходит live-альбом "Live From Las Vegas At The Palms", который был записан во время тура с Blue October в октябре 2007 в Лас-Вегасе. В апреле 2008 Yellowcard объявили о временном перерыве. Европейское турне, намеченное на 2008 год, было отменено, а вместо этого весной группа отправилась на акустический тур - последний перед перерывом. Причин было несколько. Шон Маккин женился и хотел бы сделать небольшую передышку и посвятить время семье, а Райан Мендез просто хочет передохнуть. В это время солист и ритм-гитарист Райан Ки вместе с Шоном О'Доннелом из Reeve Oliver создаёт новую группу - Big If, а барабанщик Лонгинью Парсонс III стал участником другой американской группы с желанием помочь им продвинуться. 16 июня 2009 года Capitol Records выпустили EP с названием "Deep Cuts". Он состоит из четырех би-сайдов из предыдущих альбомов группы. В 2010, после перерыва, который длился почти два с половиной года, Yellowcard возвращается, и теперь уже с новым постоянным басистом - им стал Шон О'Доннел из Reeve Oliver, с которым Райан Ки работал в Big If. Группа подписывает контракт с лейблом Hopeless Records. И сразу же начинается работа над новым альбомом - "When You're Through Thinking, Say Yes", выход которого состоялся 21 марта 2011 года. В него также вошли переработанные песни Big If, а именно "Hide" и "Hang You Up". Текущий состав Yellowcard: Райан Ки (Ryan Key) – вокал, ритм-гитара Шон МакКин (Sean Mackin) – скрипка, бэк-вокал Райан Мендез (Ryan Mendez) - соло-гитара Шон О'Доннел (Sean O'Donnell) - бас-гитара, бэк-вокал Лонгинью Парсон III (Longineu Parsons III) - ударные Скрыть...
Популярные аккорды Yellowcard:
алфавиту | просмотрам | случайно
  • Standard Tuning
    
    Intro/Verse
    Guitar 1                          
    e-----------------------------
    B-----------------------------
    G---1----------------7--------
    D---2-x4----4--------7-x8-----
    A---2-------4-x5-----5--------
    E-----------2-----------------…
  • Tuning (Standard) (EADGBe)
    
       Am  C   G  D/F#  F  Fm  B*
    e|-0-|-0-|-3-|-0-|-1-|-1-|-0-|
    B|-1-|-1-|-3-|-3-|-1-|-1-|-1-|
    G|-2-|-0-|-0-|-2-|-2-|-1-|-0-|
    D|-2-|-2-|-0-|-0-|-3-|-3-|-0-|
    A|-0-|-3-|-2-|-0-|-3-|-3-|-2-|
    E|-0-|-0-|-3-|-2-|-1-|-1-|-0-|
    
    (Verse…
  • Tuning:DADGBe
    
    GUITAR 1
    ------------
    
    Intro(x2)-figure out the strumming
    
    e|-----------------------------|
    B|-----------------------------|
    G|-----------------------------|
    D|-4---0---7---2---------------|
    A|-4---0---7---2---------------|
    D|-4---0---7---2---------------|
    
    Verse(x4)(Think…
  • Intro – palm muted
    e|---------------------------------------------------------------------------|
    B|---------------------------------------------------------------------------|
    G|------555-------------------555--------------------------------------------|
    D|--222-555-444-55555-44--222-555-444-5555-----------------------------------|
    A|--222-333-444-55555-44--222-333-444-5555-----------------------------------|
    E|--000-----222-33333-22--000-----222-3333-----------------------------------|
    
    Intro…
  • In Drop D tuning
    
    Guitar 1 
    Intro   This part played 2x
    e|--------------------------------|--------------------------------|
    b|--------------------------------|--------------------------------|
    g|-7-7--7-7-7-7-7--7-7--7-7-7-7-7-|--------------------------------|
    d|-7-7--7-7-7-7-7--7-7--7-7-7-7-7-|-2-2--2-2-2-2-2--2-2--2-2-2-2-2-|
    a|-5-5--5-5-5-5-5--5-5--5-5-5-5-5-|-2-2--2-2-2-2-2--2-2--2-2-2-2-2-|
    D|--------------------------------|-2-2--2-2-2-2-2--2-2--2-2-2-2-2-|
    
    e|--------------------------------|--------------------------------|
    b|--------------------------------|--------------------------------|
    g|-4-4--4-4-4-4-4--4-4--4-4-4-4-4-|--------------------------------|
    d|-4-4--4-4-4-4-4--4-4--4-4-4-4-4-|-5-5--5-5-5-5-5--5-5--5-5-5-5-5-|
    a|-2-2--2-2-2-2-2--2-2--2-2-2-2-2-|-5-5--5-5-5-5-5--5-5--5-5-5-5-5-|
    D|--------------------------------|-5-5--5-5-5-5-5--5-5--5-5-5-5-5-|
    
    Verse…
  • Intro
    
    One, two, three four...
    
    Guitar 1
       A               E               Eadd9           Dsus2
    e|---------0-----------------------------------------------0-------|
    B|-------------------------0---------------------------3-----3---3-|
    G|-----2-----2---2-----1-----1---1-----1---2p1---1---2---2-----2---|
    D|---2---2-----2-----2---2-----2-----2---2-----2---0---------------|
    A|-0---------------------------------------------------------------|
    E|-----------------0---------------2-------------------------------|
    
    Guitar…
  • Intro:  E  |  A  | H C#m |  A
    
      E                        A
    Broken this fragile thing now,
           H        C#m               A
    And I can't, I can't pick up the pieces,
    And I've thrown my words all around,
    But I can't, I…
  • Tuning: Drop D
    
    Intro (wah-wah effect is used) x2
    e|--------------------------------------------------|
    B|--------------------------------------------------|
    G|--------------------------------------------------|
    D|--7--7--7--7--5--5--5--5--3--3--3--3--3--3--3--3--|
    A|--7--7--7--7--5--5--5--5--3--3--3--3--3--3--3--3--|
    D|--7--7--7--7--5--5--5--5--3--3--3--3--3--3--3--3--|
    
    e|------------------------------------------------------|
    B|------------------------------------------------------|
    G|------------------------------------------------------|
    D|--7--7--7--7--10--10--10--10--5--5--5--5--5--5--5--5--|
    A|--7--7--7--7--10--10--10--10--5--5--5--5--5--5--5--5--|
    D|--7--7--7--7--10--10--10--10--5--5--5--5--5--5--5--5--|
    
    Intro…
  • ---Guitar 1---
    Intro x2:
    e-----9----------------------------------------
    B----7-7-4-------------------------------------
    G-4-6------4-6-8-8/9-8-6-4-6-8-8/9-4-6-4*-3----
    D----------------------------------------------
    A----------------------------------------------
    E----------------------------------------------…
  • Drop D
                              
    
    Intro
    e|----------------------------------------------------------------------|
    b|---3-3-3--3-2-2-2-2---------------------------------------------------|
    g|---4-4-4--4-2-2-2-2----14-14-14-x-x-12-12-11------7-7---------7-7-7-7-|
    d|---4-4-4--4-2-2-2-2-----x--x--x-x-x--x--x-x-------7-7---------7-7-7-7-|
    a|-2---------------------12-12-12-x-x-10-10-9-----5-5-5-0-0-0-0-5-5-5-5-|
    D|--------------------0-------------------------5-5-5-5-0-0-0-0-5-5-5-5-|
    
    Intro…
  • E|---------------------------------------------------------------||
    B|---------------------------------------------------------------||
    G|----9-9--7-6-7-6---------------6----6-7-6-----6----------------||
    D|-7------------------9-9----7-9----9---------7-----9h11---------||
    A|---------------------------------------------------------------||
    D|---------------------------------------------------------------||
    
    E|---------------------------------------------------------------||
    B|---------------------------------------------------------------||
    G|----9-9--7-6-7-6---------------6----6-7-6------9-9-------------||
    D|-7------------------9-9----7-9----9---------7------------------||
    A|---------------------------------------------------------------||
    D|---------------------------------------------------------------||
    
    E|---------------------------------------------------------------||
    B|---------------------------------------------------------------||
    G|----9-9--7-6-7-6---------------6----6-7-6-----6----------------||
    D|-7------------------9-9----7-9----9---------7-----9h11---------||
    A|---------------------------------------------------------------||
    D|---------------------------------------------------------------||
    
    E|---------------------------------------------------------------||
    B|---------------------------------------------------------------||
    G|----9-9--7-6-7-6-----------------------------------------------||
    D|-7------------------9h11p9--7-7--7h9p7--6-6--6h7p6--4~~--------||
    A|---------------------------------------------------------------||
    D|---------------------------------------------------------------||…
  • Tuning : G D A E
    
    Riff 1 ( ten, fifteen, fourteen )
    G|------------|
    D|------------|
    A|-10---15-14-| x7
    E|------------|
    
    G|------------|
    D|------------|
    A|-10---15----|
    E|------------|
    
    Riff 2 ( tens, twelves, fifteens, tens…
  • Intro (Guitar)
    
    Prelude
    
    G--------------------------------------------------------------------------
    D--------------------33-3-3-3-3-3-3-333------------------33-3-3-3-3-3-3-333
    A-55-5-5-5-5-5-5-555-------------------55-5-5-5-5-5-5-555------------------
    E--------------------------------------------------------------------------
    
    Verse…
  • Drop D tuning
    
    7x
    7x  means mute strings right after strum
    7x
    
      Intro (x2) clean
    e:----------2-------------2--------------------------------------
    B:-------3----3---3-----3---3---3-----3--3-3-3~------------------
    G:--4-4--4------4---3-3-3-----3-------2--2-2-2~------------------
    D:--------------------------------0-0------------0-0-0-0---------
    A:-------------------------------------------------------4-4-0-0-
    D:---------------------------------------------------------------…
  • Intro:
    A, B, C#, High E
    
    
    Verse:
    Different plucking of full bar chord A, something like this
    
    -------------------------------------------|
    ---------------------------------------5---|
    -------6-------------6---------------6-----|
    ---7------7-----7-------7------7---7-------|
    -----7------------7--------------7---------|
    -5-----------5--------------5--------------|
    
    Instrumental…
  • DROP D TUNING (DADGBe)
    
    
           intro and verses
    e|-----------------------------|
    B|-------------3---------------|
    G|-7-6-7-2-4-2-2-7-6-7-11-9-11-|
    D|-0-0-0-0-0-4-0-0-0-0-12-7-12-|
    A|-0-0-0-0-0-0-0-0-0-0-12-7-12-|
    D|-0-7-9-4-5-0-0-0-7-9--0-7--0-|…
  • Tuning : E A D G
    
    Intro/Pre-Verse
    G|------------------------------------------------------|
    D|------------------------------------------------------|
    A|------------------------------------------------------| x2
    E|-777777777777-222222222222-000000000000-777777-000000-|
    
    Verse…
  • G D A E
    
    Intro/Pre Verse
    G|---------------------------------------|
    D|--55555555-44444444-22222222-00000000--|
    A|---------------------------------------|
    E|---------------------------------------|
    
    G|------------------------------------------|
    D|-----------------------55555555-44444444--|
    A|--33333333-x-22-x-33-x-55555555-55555555--|
    E|------------------------------------------|
    
    Verse
    G|------------------|---------------------|
    D|--5~--4~--2~--0~--|---------------------|
    A|------------------|--3~--2~--3~--5~-----|
    E|------------------|---------------------|
    
    Chorus
    G|---------------------------------------|
    D|---------------------------------------|
    A|--------------------33333333-55555555--|
    E|--00000000-33333333--------------------|…
  • Intro - Gtr I
     
    E-----------
    B-----------
    G-----------
    D--5-5-5----
    A--5-5-5----
    D--5-5-5----
    PM----------
                           X4                          x1
    E--------------------------------------------I-------------
    B--------------------------------------------I-------------
    G---4444444444444444-------------------------I-------------
    D---4444444444444444-5555555555555555-40~----I--5-5-5------
    A---2222222222222222-5555555555555555-50~----I--5-5-5------
    D--------------------5555555555555555-40~----I--5-5-5------
    PM…
  • Intro. Gtr. 1
    
    E----------0----------------0-------------0---2---3-------0---2---3---
    B------3-----3---3------3-----3---3-----3---3-----------3---3---------
    G----2---2-----2----------2-----2-----0---------0---0—0---------0---0-
    D--4------------------4-----------------------------------------------
    A---------------------------------------------------------------------
    d---------------------------------------------------------------------
    
    Intro…
  • Chords   D-005770     C#-046600   G-355000  F#/G-255000 
                  B-024400      A/C#-047700     E-022100
    
    intro: D-050700 strum
    
    D    C#  G   F#
    Warm October nights
    B            A               F#         G
    You came…
  • Tuning- Normal
    
    Intro
    ------------------------
    ------------------------
    -0-0-0-0-0-0-0-0--------
    -5-5-5-5-5-5-5-5--------
    ------------------------
    ------------------------
    
    Riff 1- Each chord 16x (prechorus)
    -0--3-0------------------------
    -1--3-3------------------------
    -0--0-2------------------------
    -2--0-0------------------------
    -3--2-x------------------------
    ----3-2------------------------
    
    Riff…
  • CHORUS:
                    C2    G       D                                 C     D 
    Because you're everywhere to me, and when I close my eyes it's you i see, 
                         Em         C        D              C2,G,D
    you're…
Наверх