Аккорды Yo La Tengo - Saturday

Добавлено: @romashka
Дата добавления: 16 Февраля 2024г.
Рейтинг:
0.0
Просмотров: 62
G A x4
Em

G

A                        G
The room was filled with talk
A              G
For anyone listening
A                     G
I found a spot by the door
     A      Em
With no one around

G   A       Bm  A
Let my mind go
G          A
Out of tune
G          A
Out of tune

Em

G

A                    G
I kept a smile on my face
A          G
For anyone looking
A                  G
Tried to turn away questions
A         Em
Before he asked

G   A       Bm  A
Let my mind go
G          A
Out of tune
G          A
Out of tune

Em

G

A                      G
I was engrossed in the film
A              G
Without really watching
A                             G
Said, "who's the guy with the gun?"
      A     Em
As if I was involved

G   A       Bm  A
Let my mind go
G          A
Out of tune
G          A
Out of tune

Em

G          A
Out of tune
G          A
Out of tune
G          A
Out of tune

Em

outro:
e|---------------------------------------------------|
B|--3--2-5-0--3--2-5-0---3--2-5-7--5--7--5--7--5--7--|
G|---------------------------------------------------|
D|---------------------------------------------------|
A|---------------------------------------------------|
E|---------------------------------------------------|

bass:

intro:
e|---------------------------------------------------|
B|---------------------------------------------------|
G|---------------------------------------------------|
D|---------------------------------------------------|
A|---------------------------------------------------|
E|---3--3-5---3--3-5---3--3-5---3--3-5---0-----------|


verse I:
e|---------------------------------------------------|
B|---------------------------------------------------|
G|---------------------------------------------------|
D|---------------------------------------------------|
A|---------------------------------------------------|
E|---3--3-5---3--3-5---3--3-5---0--------------------|

chorus:
e|---------------------------------------------------|
B|---------------------------------------------------|
G|---------------------------------------------------|
D|---------------------------------------------------|
A|-----------2--2-2-4--4-2-4-2-----------------------|
E|---3--3-5---------------------3--3-5---3--3-5---0--|

verse II:
e|---------------------------------------------------|
B|---------------------------------------------------|
G|---------------------------------------------------|
D|---------------------------------------------------|
A|---------------------------------------------------|
E|---3--3-3-5---3--3-3-5---3--3-3-5---0--------------|

verse III:
e|---------------------------------------------------|
B|---------------------------------------------------|
G|---------------------------------------------------|
D|---------------------------------------------------|
A|---5--------------5--------------5-----------------|
E|--3-3-5-5-3-5-3--3-3-5-5-3-5-3--3-3-5-5-3-5-3--0---|

outro:
e|------------------|
B|------------------|
G|------------------|
D|------------------|
A|---5--------------|
E|--3-3-5-5-3-5-3---| repeat...
Музыка не только фактор облагораживающий, воспитательный. Музыка – целитель здоровья (Бехтерев)
Мы стремимся к созданию контента, соответствующего всем нормам законодательства и уважающего интеллектуальную собственность. Мы также придаем большое значение тому, чтобы не задеть никого и не оскорбить чьи-либо чувства. Если у вас есть вопросы или претензии по размещенному материалу, пожалуйста, сообщите нам об этом.
Шрифт
-
0
+
Прокрутка
-
0
+
Стоп
Наверх