Аккорды Yot Club - Mr. Rager

Добавлено: @romashka
Дата добавления: 25 Июля 2022г.
Рейтинг:
0.0
Просмотров: 48
Транспонировать - +
Intro x2:
B----10-7---------------------------------------------
G---------9-7-------------------------------------------
D-------------9----9-11-12-11-7--11-7---7-11-7---7-----
A-------------------------------------9--------9-------

B----10-7---7------------------------------------------
G---------9--------------------------------------------
D-------------9----9-11-12-11-7--11-7---7-11-7-----7---
A-------------------------------------9--------9-9------

D                   Hm
Birds seen flyin' around
You never see them
F#m              A
To long on the ground
                    D        Hm
You wanna be one of them (Yeah) 
                    F#m      A
You wanna be one of them 
                   D                      Hm
You might hear the birds sing and flyin' around
You never see them
F#m              A
To long on the ground
                    D            Hm
You wanna be one of them.. (Yeah)
                    F#m          A
You wanna be one of them.. 

Woah now
D          Hm
Hey! Mr. Rager! Mr. Rager!
F#m
Tell me where you're going!
A
Tell us where you're headed!
    D             Hm
I'm off on a adventure
Mr. Rager!
F#m
Tell me some of your stories
A
Tell us of your travels
D          Hm
HEY! Mr. Rager! Mr. Rager!
F#m
Tell me where you're going!
A
Tell us where you're headed!
D                   Hm
I'm on my way to Heaven
Mr. Rager!
F#m                A
Can we tag along? Can we take a journey?

D                       Hm
Knocked down round for round
                         F#m
You're feeling like your shot down
        A
On the ground
                      D     Hm
When will the fantasy end?
                         F#m       A
Whenn will the Heaven begin? (Yeah)

          

D                       Hm
Knocked down round for round
                         F#m
You're feeling like your shot down
        A
On the ground
                      D     Hm
When will the fantasy end?
                         F#m       A
Whenn will the Heaven begin? (Yeah)

Woah now
D          Hm
Hey! Mr. Rager! Mr. Rager!
F#m
Tell me where you're going!
A
Tell us where you're headed!
    D             Hm
I'm off on a adventure
Mr. Rager!
F#m
Tell me some of your stories
A
Tell us of your travels
D          Hm
HEY! Mr. Rager! Mr. Rager!
F#m
Tell me where you're going!
A
Tell us where you're headed!
D                   Hm
I'm on my way to Heaven
Mr. Rager!
F#m                A
Can we tag along? Can we take a journey?


outro x2:
B----10-7---------------------------------------------
G---------9-7-------------------------------------------
D-------------9----9-11-12-11-7--11-7---7-11-7---7-----
A-------------------------------------9--------9-------

B----10-7---7------------------------------------------
G---------9--------------------------------------------
D-------------9----9-11-12-11-7--11-7---7-11-7-----7---
A-------------------------------------9--------9-9------
Наверх